  0
SECTION
  2
HEADER
  9
$ACADVER
  1
AC1015
  9
$ACADMAINTVER
 70
     6
  9
$DWGCODEPAGE
  3
ANSI_1254
  9
$INSBASE
 10
0.0
 20
0.0
 30
0.0
  9
$EXTMIN
 10
0.0
 20
0.0
 30
0.0
  9
$EXTMAX
 10
279.4
 20
215.9
 30
0.0
  9
$LIMMIN
 10
0.0
 20
0.0
  9
$LIMMAX
 10
279.4
 20
215.9
  9
$ORTHOMODE
 70
     0
  9
$REGENMODE
 70
     1
  9
$FILLMODE
 70
     1
  9
$QTEXTMODE
 70
     0
  9
$MIRRTEXT
 70
     1
  9
$LTSCALE
 40
1.0
  9
$ATTMODE
 70
     1
  9
$TEXTSIZE
 40
3.5
  9
$TRACEWID
 40
1.0
  9
$TEXTSTYLE
  7
Standard
  9
$CLAYER
  8
0
  9
$CELTYPE
  6
ByLayer
  9
$CECOLOR
 62
   256
  9
$CELTSCALE
 40
1.0
  9
$DISPSILH
 70
     0
  9
$DIMSCALE
 40
1.0
  9
$DIMASZ
 40
3.5
  9
$DIMEXO
 40
1.0
  9
$DIMDLI
 40
3.75
  9
$DIMRND
 40
0.0
  9
$DIMDLE
 40
0.0
  9
$DIMEXE
 40
1.0
  9
$DIMTP
 40
0.0
  9
$DIMTM
 40
0.0
  9
$DIMTXT
 40
3.5
  9
$DIMCEN
 40
2.5
  9
$DIMTSZ
 40
0.0
  9
$DIMTOL
 70
     0
  9
$DIMLIM
 70
     0
  9
$DIMTIH
 70
     1
  9
$DIMTOH
 70
     1
  9
$DIMSE1
 70
     0
  9
$DIMSE2
 70
     0
  9
$DIMTAD
 70
     1
  9
$DIMZIN
 70
     0
  9
$DIMBLK
  1

  9
$DIMASO
 70
     1
  9
$DIMSHO
 70
     1
  9
$DIMPOST
  1

  9
$DIMAPOST
  1

  9
$DIMALT
 70
     0
  9
$DIMALTD
 70
     3
  9
$DIMALTF
 40
0.0393700787
  9
$DIMLFAC
 40
1.0
  9
$DIMTOFL
 70
     1
  9
$DIMTVP
 40
0.0
  9
$DIMTIX
 70
     0
  9
$DIMSOXD
 70
     0
  9
$DIMSAH
 70
     0
  9
$DIMBLK1
  1

  9
$DIMBLK2
  1

  9
$DIMSTYLE
  2
ISO-25
  9
$DIMCLRD
 70
     0
  9
$DIMCLRE
 70
     0
  9
$DIMCLRT
 70
     0
  9
$DIMTFAC
 40
1.0
  9
$DIMGAP
 40
1.524
  9
$DIMJUST
 70
     0
  9
$DIMSD1
 70
     0
  9
$DIMSD2
 70
     0
  9
$DIMTOLJ
 70
     0
  9
$DIMTZIN
 70
     0
  9
$DIMALTZ
 70
     0
  9
$DIMALTTZ
 70
     0
  9
$DIMUPT
 70
     0
  9
$DIMDEC
 70
     2
  9
$DIMTDEC
 70
     2
  9
$DIMALTU
 70
     2
  9
$DIMALTTD
 70
     3
  9
$DIMTXSTY
  7
Standard
  9
$DIMAUNIT
 70
     0
  9
$DIMADEC
 70
     2
  9
$DIMALTRND
 40
0.0
  9
$DIMAZIN
 70
     0
  9
$DIMDSEP
 70
    44
  9
$DIMATFIT
 70
     3
  9
$DIMFRAC
 70
     0
  9
$DIMLDRBLK
  1

  9
$DIMLUNIT
 70
     2
  9
$DIMLWD
 70
    -2
  9
$DIMLWE
 70
    -2
  9
$DIMTMOVE
 70
     0
  9
$LUNITS
 70
     2
  9
$LUPREC
 70
     2
  9
$SKETCHINC
 40
1.0
  9
$FILLETRAD
 40
10.0
  9
$AUNITS
 70
     0
  9
$AUPREC
 70
     2
  9
$MENU
  1
.
  9
$ELEVATION
 40
0.0
  9
$PELEVATION
 40
0.0
  9
$THICKNESS
 40
0.0
  9
$LIMCHECK
 70
     0
  9
$CHAMFERA
 40
0.0
  9
$CHAMFERB
 40
0.0
  9
$CHAMFERC
 40
0.0
  9
$CHAMFERD
 40
0.0
  9
$SKPOLY
 70
     0
  9
$TDCREATE
 40
2459741.607902373
  9
$TDUCREATE
 40
2459741.482902373
  9
$TDUPDATE
 40
2459741.607902558
  9
$TDUUPDATE
 40
2459741.482902558
  9
$TDINDWG
 40
0.0000000116
  9
$TDUSRTIMER
 40
0.0000000116
  9
$USRTIMER
 70
     1
  9
$ANGBASE
 50
0.0
  9
$ANGDIR
 70
     0
  9
$PDMODE
 70
     0
  9
$PDSIZE
 40
-1.0
  9
$PLINEWID
 40
0.0
  9
$SPLFRAME
 70
     0
  9
$SPLINETYPE
 70
     6
  9
$SPLINESEGS
 70
     8
  9
$HANDSEED
  5
103
  9
$SURFTAB1
 70
     6
  9
$SURFTAB2
 70
     6
  9
$SURFTYPE
 70
     6
  9
$SURFU
 70
     6
  9
$SURFV
 70
     6
  9
$UCSBASE
  2

  9
$UCSNAME
  2

  9
$UCSORG
 10
0.0
 20
0.0
 30
0.0
  9
$UCSXDIR
 10
1.0
 20
0.0
 30
0.0
  9
$UCSYDIR
 10
0.0
 20
1.0
 30
0.0
  9
$UCSORTHOREF
  2

  9
$UCSORTHOVIEW
 70
     0
  9
$UCSORGTOP
 10
0.0
 20
0.0
 30
0.0
  9
$UCSORGBOTTOM
 10
0.0
 20
0.0
 30
0.0
  9
$UCSORGLEFT
 10
0.0
 20
0.0
 30
0.0
  9
$UCSORGRIGHT
 10
0.0
 20
0.0
 30
0.0
  9
$UCSORGFRONT
 10
0.0
 20
0.0
 30
0.0
  9
$UCSORGBACK
 10
0.0
 20
0.0
 30
0.0
  9
$PUCSBASE
  2

  9
$PUCSNAME
  2

  9
$PUCSORG
 10
0.0
 20
0.0
 30
0.0
  9
$PUCSXDIR
 10
1.0
 20
0.0
 30
0.0
  9
$PUCSYDIR
 10
0.0
 20
1.0
 30
0.0
  9
$PUCSORTHOREF
  2

  9
$PUCSORTHOVIEW
 70
     0
  9
$PUCSORGTOP
 10
0.0
 20
0.0
 30
0.0
  9
$PUCSORGBOTTOM
 10
0.0
 20
0.0
 30
0.0
  9
$PUCSORGLEFT
 10
0.0
 20
0.0
 30
0.0
  9
$PUCSORGRIGHT
 10
0.0
 20
0.0
 30
0.0
  9
$PUCSORGFRONT
 10
0.0
 20
0.0
 30
0.0
  9
$PUCSORGBACK
 10
0.0
 20
0.0
 30
0.0
  9
$USERI1
 70
     0
  9
$USERI2
 70
     0
  9
$USERI3
 70
     0
  9
$USERI4
 70
     0
  9
$USERI5
 70
     0
  9
$USERR1
 40
0.0
  9
$USERR2
 40
0.0
  9
$USERR3
 40
0.0
  9
$USERR4
 40
0.0
  9
$USERR5
 40
0.0
  9
$WORLDVIEW
 70
     1
  9
$SHADEDGE
 70
     3
  9
$SHADEDIF
 70
    70
  9
$TILEMODE
 70
     1
  9
$MAXACTVP
 70
    64
  9
$PINSBASE
 10
0.0
 20
0.0
 30
0.0
  9
$PLIMCHECK
 70
     0
  9
$PEXTMIN
 10
1.0000000000E+20
 20
1.0000000000E+20
 30
1.0000000000E+20
  9
$PEXTMAX
 10
-1.0000000000E+20
 20
-1.0000000000E+20
 30
-1.0000000000E+20
  9
$PLIMMIN
 10
0.0
 20
0.0
  9
$PLIMMAX
 10
420.0
 20
297.0
  9
$UNITMODE
 70
     0
  9
$VISRETAIN
 70
     1
  9
$PLINEGEN
 70
     0
  9
$PSLTSCALE
 70
     1
  9
$TREEDEPTH
 70
  3020
  9
$CMLSTYLE
  2
Standard
  9
$CMLJUST
 70
     0
  9
$CMLSCALE
 40
20.0
  9
$PROXYGRAPHICS
 70
     1
  9
$MEASUREMENT
 70
     1
  9
$CELWEIGHT
370
    -1
  9
$ENDCAPS
280
     0
  9
$JOINSTYLE
280
     0
  9
$LWDISPLAY
290
     1
  9
$INSUNITS
 70
     4
  9
$HYPERLINKBASE
  1

  9
$STYLESHEET
  1

  9
$XEDIT
290
     1
  9
$CEPSNTYPE
380
     0
  9
$PSTYLEMODE
290
     1
  9
$FINGERPRINTGUID
  2
{6ca9f00b-a51c-4060-82e3-2c119ef6b4a4}
  9
$VERSIONGUID
  2
{FAEB1C32-E019-11D5-929B-00C0DF256EC4}
  9
$EXTNAMES
290
     1
  9
$PSVPSCALE
 40
0.0
  9
$OLESTARTUP
290
     0
  0
ENDSEC
  0
SECTION
  2
CLASSES
  0
CLASS
  1
ACDBDICTIONARYWDFLT
  2
AcDbDictionaryWithDefault
  3
ObjectDBX Classes
 90
        0
280
     0
281
     0
  0
CLASS
  1
VISUALSTYLE
  2
AcDbVisualStyle
  3
ObjectDBX Classes
 90
     4095
280
     0
281
     0
  0
CLASS
  1
MATERIAL
  2
AcDbMaterial
  3
ObjectDBX Classes
 90
     1153
280
     0
281
     0
  0
CLASS
  1
SCALE
  2
AcDbScale
  3
ObjectDBX Classes
 90
     1153
280
     0
281
     0
  0
CLASS
  1
TABLESTYLE
  2
AcDbTableStyle
  3
ObjectDBX Classes
 90
     4095
280
     0
281
     0
  0
CLASS
  1
MLEADERSTYLE
  2
AcDbMLeaderStyle
  3
ACDB_MLEADERSTYLE_CLASS
 90
     4095
280
     0
281
     0
  0
CLASS
  1
SUN
  2
AcDbSun
  3
SCENEOE
 90
     1153
280
     0
281
     0
  0
CLASS
  1
ACDBPLACEHOLDER
  2
AcDbPlaceHolder
  3
ObjectDBX Classes
 90
        0
280
     0
281
     0
  0
CLASS
  1
LAYOUT
  2
AcDbLayout
  3
ObjectDBX Classes
 90
        0
280
     0
281
     0
  0
ENDSEC
  0
SECTION
  2
TABLES
  0
TABLE
  2
VPORT
  5
8
330
0
100
AcDbSymbolTable
 70
     1
  0
VPORT
  5
29
330
8
100
AcDbSymbolTableRecord
100
AcDbViewportTableRecord
  2
*Active
 70
     0
 10
0.0
 20
0.0
 11
1.0
 21
1.0
 12
139.7
 22
107.95
 13
0.0
 23
0.0
 14
10.0
 24
10.0
 15
10.0
 25
10.0
 16
0.0
 26
0.0
 36
1.0
 17
0.0
 27
0.0
 37
0.0
 40
215.9
 41
1.2941176471
 42
50.0
 43
0.0
 44
0.0
 50
0.0
 51
0.0
 71
     0
 72
  2000
 73
     1
 74
     3
 75
     0
 76
     0
 77
     0
 78
     0
281
     0
 65
     1
110
0.0
120
0.0
130
0.0
111
1.0
121
0.0
131
0.0
112
0.0
122
1.0
132
0.0
 79
     0
146
0.0
  0
ENDTAB
  0
TABLE
  2
LTYPE
  5
5
330
0
100
AcDbSymbolTable
 70
     6
  0
LTYPE
  5
14
330
5
100
AcDbSymbolTableRecord
100
AcDbLinetypeTableRecord
  2
ByBlock
 70
     0
  3

 72
    65
 73
     0
 40
0.0
  0
LTYPE
  5
15
330
5
100
AcDbSymbolTableRecord
100
AcDbLinetypeTableRecord
  2
ByLayer
 70
     0
  3

 72
    65
 73
     0
 40
0.0
  0
LTYPE
  5
16
330
5
100
AcDbSymbolTableRecord
100
AcDbLinetypeTableRecord
  2
Continuous
 70
     0
  3
Solid line
 72
    65
 73
     0
 40
0.0
  0
LTYPE
  5
6E
330
5
100
AcDbSymbolTableRecord
100
AcDbLinetypeTableRecord
  2
HIDDEN
 70
     0
  3
Hidden __ __ __ __ __ __ __ __ __ __ __ __ __ __
 72
    65
 73
     2
 40
1.905
 49
1.27
 74
     0
 49
-0.635
 74
     0
  0
LTYPE
  5
6F
330
5
100
AcDbSymbolTableRecord
100
AcDbLinetypeTableRecord
  2
PHANTOM
 70
     0
  3
Phantom ______  __  __  ______  __  __  ______
 72
    65
 73
     6
 40
12.7
 49
6.35
 74
     0
 49
-1.27
 74
     0
 49
1.27
 74
     0
 49
-1.27
 74
     0
 49
1.27
 74
     0
 49
-1.27
 74
     0
  0
LTYPE
  5
70
330
5
100
AcDbSymbolTableRecord
100
AcDbLinetypeTableRecord
  2
CENTER
 70
     0
  3
Center ____ _ ____ _ ____ _ ____ _ ____ _ ____
 72
    65
 73
     4
 40
10.16
 49
6.35
 74
     0
 49
-1.27
 74
     0
 49
1.27
 74
     0
 49
-1.27
 74
     0
  0
LTYPE
  5
71
330
5
100
AcDbSymbolTableRecord
100
AcDbLinetypeTableRecord
  2
CENTERX2
 70
     0
  3
Center (2x) ________  __  ________  __  _____
 72
    65
 73
     4
 40
20.32
 49
12.7
 74
     0
 49
-2.54
 74
     0
 49
2.54
 74
     0
 49
-2.54
 74
     0
  0
LTYPE
  5
72
330
5
100
AcDbSymbolTableRecord
100
AcDbLinetypeTableRecord
  2
DOT2
 70
     0
  3
Dot (.5x) ........................................
 72
    65
 73
     2
 40
0.635
 49
0.0
 74
     0
 49
-0.635
 74
     0
  0
ENDTAB
  0
TABLE
  2
LAYER
  5
2
330
0
100
AcDbSymbolTable
 70
    17
  0
LAYER
  5
10
330
2
100
AcDbSymbolTableRecord
100
AcDbLayerTableRecord
  2
0
 70
     0
 62
     7
  6
Continuous
370
    -3
390
F
  0
LAYER
  5
73
330
2
100
AcDbSymbolTableRecord
100
AcDbLayerTableRecord
  2
FORMAT
 70
     0
 62
     7
  6
Continuous
370
    -3
390
F
  0
LAYER
  5
74
330
2
100
AcDbSymbolTableRecord
100
AcDbLayerTableRecord
  2
YARDIMCI_GEOMETRI
 70
     0
 62
    -6
  6
Continuous
290
     0
370
    -3
390
F
  0
LAYER
  5
75
330
2
100
AcDbSymbolTableRecord
100
AcDbLayerTableRecord
  2
SAYFA_CERCEVESI
 70
     0
 62
     7
  6
Continuous
370
    25
390
F
  0
LAYER
  5
76
330
2
100
AcDbSymbolTableRecord
100
AcDbLayerTableRecord
  2
ANTET
 70
     0
 62
     7
  6
Continuous
370
    -3
390
F
  0
LAYER
  5
77
330
2
100
AcDbSymbolTableRecord
100
AcDbLayerTableRecord
  2
OLCU
 70
     0
 62
   150
  6
Continuous
370
    -3
390
F
  0
LAYER
  5
78
330
2
100
AcDbSymbolTableRecord
100
AcDbLayerTableRecord
  2
METIN
 70
     0
 62
    96
  6
Continuous
370
    -3
390
F
  0
LAYER
  5
79
330
2
100
AcDbSymbolTableRecord
100
AcDbLayerTableRecord
  2
BALON
 70
     0
 62
     5
  6
Continuous
370
    -3
390
F
  0
LAYER
  5
7A
330
2
100
AcDbSymbolTableRecord
100
AcDbLayerTableRecord
  2
VURGU
 70
     0
 62
     7
  6
Continuous
370
    -3
390
F
  0
LAYER
  5
7B
330
2
100
AcDbSymbolTableRecord
100
AcDbLayerTableRecord
  2
SILIK
 70
     0
 62
     7
  6
Continuous
370
    -3
390
F
  0
LAYER
  5
7C
330
2
100
AcDbSymbolTableRecord
100
AcDbLayerTableRecord
  2
MODEL
 70
     0
 62
     7
  6
Continuous
370
    -3
390
F
  0
LAYER
  5
7D
330
2
100
AcDbSymbolTableRecord
100
AcDbLayerTableRecord
  2
DETAYLANDıRMA
 70
     0
 62
   190
  6
Continuous
370
    -3
390
F
  0
LAYER
  5
7E
330
2
100
AcDbSymbolTableRecord
100
AcDbLayerTableRecord
  2
TOLERANS
 70
     0
 62
   230
  6
Continuous
370
    -3
390
F
  0
LAYER
  5
7F
330
2
100
AcDbSymbolTableRecord
100
AcDbLayerTableRecord
  2
MERKEZ_CIZGILERI
 70
     0
 62
    30
  6
Continuous
370
    -3
390
F
  0
LAYER
  5
80
330
2
100
AcDbSymbolTableRecord
100
AcDbLayerTableRecord
  2
KESIT-DETAY_CIZGILERI
 70
     0
 62
     7
  6
Continuous
370
    -3
390
F
  0
LAYER
  5
81
330
2
100
AcDbSymbolTableRecord
100
AcDbLayerTableRecord
  2
\U+041E\U+0421\U+0415\U+0412\U+042B\U+0415
 70
     0
 62
     7
  6
Continuous
370
    -3
390
F
  0
LAYER
  5
82
330
2
100
AcDbSymbolTableRecord
100
AcDbLayerTableRecord
  2
\U+0412\U+041E\U+0414\U+042F\U+041D\U+042B\U+0415_\U+0417\U+041D\U+0410\U+041A\U+0418
 70
     0
 62
    11
  6
Continuous
370
    -3
390
F
  0
ENDTAB
  0
TABLE
  2
STYLE
  5
3
330
0
100
AcDbSymbolTable
 70
     1
  0
STYLE
  5
11
330
3
100
AcDbSymbolTableRecord
100
AcDbTextStyleTableRecord
  2
Standard
 70
     0
 40
0.0
 41
1.0
 50
0.0
 71
     0
 42
3.5
  3
txt
  4

  0
ENDTAB
  0
TABLE
  2
VIEW
  5
6
330
0
100
AcDbSymbolTable
 70
     0
  0
ENDTAB
  0
TABLE
  2
UCS
  5
7
330
0
100
AcDbSymbolTable
 70
     0
  0
ENDTAB
  0
TABLE
  2
APPID
  5
9
330
0
100
AcDbSymbolTable
 70
     1
  0
APPID
  5
12
330
9
100
AcDbSymbolTableRecord
100
AcDbRegAppTableRecord
  2
ACAD
 70
     0
  0
ENDTAB
  0
TABLE
  2
DIMSTYLE
  5
A
330
0
100
AcDbSymbolTable
 70
     1
100
AcDbDimStyleTable
  0
DIMSTYLE
105
27
330
A
100
AcDbSymbolTableRecord
100
AcDbDimStyleTableRecord
  2
ISO-25
 70
     0
 41
2.5
 42
0.625
 43
3.75
 44
1.25
 73
     0
 74
     0
 77
     1
 78
     8
140
2.5
141
2.5
143
0.0393700787
147
0.625
171
     3
172
     1
178
     0
271
     2
272
     2
274
     3
278
    44
283
     0
284
     8
340
11
  0
ENDTAB
  0
TABLE
  2
BLOCK_RECORD
  5
1
330
0
100
AcDbSymbolTable
 70
     5
  0
BLOCK_RECORD
  5
1F
330
1
100
AcDbSymbolTableRecord
100
AcDbBlockTableRecord
  2
*Model_Space
340
22
  0
BLOCK_RECORD
  5
1B
330
1
100
AcDbSymbolTableRecord
100
AcDbBlockTableRecord
  2
*Paper_Space
340
1E
  0
BLOCK_RECORD
  5
23
330
1
100
AcDbSymbolTableRecord
100
AcDbBlockTableRecord
  2
*Paper_Space0
340
26
  0
BLOCK_RECORD
  5
8C
330
1
100
AcDbSymbolTableRecord
100
AcDbBlockTableRecord
  2
SW_CENTERMARKSYMBOL_0
340
0
102
{BLKREFS
331
97
102
}
  0
BLOCK_RECORD
  5
AA
330
1
100
AcDbSymbolTableRecord
100
AcDbBlockTableRecord
  2
SW_CENTERMARKSYMBOL_1
340
0
102
{BLKREFS
331
B5
102
}
  0
BLOCK_RECORD
  5
DA
330
1
100
AcDbSymbolTableRecord
100
AcDbBlockTableRecord
  2
SW_CENTERMARKSYMBOL_2
340
0
102
{BLKREFS
331
E5
102
}
  0
BLOCK_RECORD
  5
E6
330
1
100
AcDbSymbolTableRecord
100
AcDbBlockTableRecord
  2
SW_CENTERMARKSYMBOL_3
340
0
102
{BLKREFS
331
F1
102
}
  0
ENDTAB
  0
ENDSEC
  0
SECTION
  2
BLOCKS
  0
BLOCK
  5
20
330
1F
100
AcDbEntity
  8
0
100
AcDbBlockBegin
  2
*Model_Space
 70
     0
 10
0.0
 20
0.0
 30
0.0
  3
*Model_Space
  1

  0
ENDBLK
  5
21
330
1F
100
AcDbEntity
  8
0
100
AcDbBlockEnd
  0
BLOCK
  5
1C
330
1B
100
AcDbEntity
 67
     1
  8
0
100
AcDbBlockBegin
  2
*Paper_Space
 70
     0
 10
0.0
 20
0.0
 30
0.0
  3
*Paper_Space
  1

  0
ENDBLK
  5
1D
330
1B
100
AcDbEntity
 67
     1
  8
0
100
AcDbBlockEnd
  0
BLOCK
  5
24
330
23
100
AcDbEntity
  8
0
100
AcDbBlockBegin
  2
*Paper_Space0
 70
     0
 10
0.0
 20
0.0
 30
0.0
  3
*Paper_Space0
  1

  0
ENDBLK
  5
25
330
23
100
AcDbEntity
  8
0
100
AcDbBlockEnd
  0
BLOCK
  5
8D
330
8C
100
AcDbEntity
  8
0
100
AcDbBlockBegin
  2
SW_CENTERMARKSYMBOL_0
 70
     0
 10
0.0
 20
0.0
 30
0.0
  3
SW_CENTERMARKSYMBOL_0
  1

  0
LINE
  5
8F
330
8C
100
AcDbEntity
  8
FORMAT
 62
     0
100
AcDbLine
 10
0.0
 20
0.0
 30
0.0
 11
0.0
 21
2.5
 31
0.0
  0
LINE
  5
90
330
8C
100
AcDbEntity
  8
FORMAT
 62
     0
100
AcDbLine
 10
0.0
 20
0.0
 30
0.0
 11
-2.5
 21
0.0
 31
0.0
  0
LINE
  5
91
330
8C
100
AcDbEntity
  8
FORMAT
 62
     0
100
AcDbLine
 10
0.0
 20
0.0
 30
0.0
 11
0.0
 21
-2.5
 31
0.0
  0
LINE
  5
92
330
8C
100
AcDbEntity
  8
FORMAT
 62
     0
100
AcDbLine
 10
0.0
 20
0.0
 30
0.0
 11
2.5
 21
0.0
 31
0.0
  0
LINE
  5
93
330
8C
100
AcDbEntity
  8
FORMAT
 62
     0
100
AcDbLine
 10
0.0
 20
5.0
 30
0.0
 11
0.0
 21
61.0
 31
0.0
  0
LINE
  5
94
330
8C
100
AcDbEntity
  8
FORMAT
 62
     0
100
AcDbLine
 10
-5.0
 20
0.0
 30
0.0
 11
-61.0
 21
0.0
 31
0.0
  0
LINE
  5
95
330
8C
100
AcDbEntity
  8
FORMAT
 62
     0
100
AcDbLine
 10
0.0
 20
-5.0
 30
0.0
 11
0.0
 21
-61.0
 31
0.0
  0
LINE
  5
96
330
8C
100
AcDbEntity
  8
FORMAT
 62
     0
100
AcDbLine
 10
5.0
 20
0.0
 30
0.0
 11
61.0
 21
0.0
 31
0.0
  0
ENDBLK
  5
8E
330
8C
100
AcDbEntity
  8
0
100
AcDbBlockEnd
  0
BLOCK
  5
AB
330
AA
100
AcDbEntity
  8
0
100
AcDbBlockBegin
  2
SW_CENTERMARKSYMBOL_1
 70
     0
 10
0.0
 20
0.0
 30
0.0
  3
SW_CENTERMARKSYMBOL_1
  1

  0
LINE
  5
AD
330
AA
100
AcDbEntity
  8
FORMAT
 62
     0
100
AcDbLine
 10
0.0
 20
0.0
 30
0.0
 11
0.0
 21
2.5
 31
0.0
  0
LINE
  5
AE
330
AA
100
AcDbEntity
  8
FORMAT
 62
     0
100
AcDbLine
 10
0.0
 20
0.0
 30
0.0
 11
-2.5
 21
0.0
 31
0.0
  0
LINE
  5
AF
330
AA
100
AcDbEntity
  8
FORMAT
 62
     0
100
AcDbLine
 10
0.0
 20
0.0
 30
0.0
 11
0.0
 21
-2.5
 31
0.0
  0
LINE
  5
B0
330
AA
100
AcDbEntity
  8
FORMAT
 62
     0
100
AcDbLine
 10
0.0
 20
0.0
 30
0.0
 11
2.5
 21
0.0
 31
0.0
  0
LINE
  5
B1
330
AA
100
AcDbEntity
  8
FORMAT
 62
     0
100
AcDbLine
 10
0.0
 20
5.0
 30
0.0
 11
0.0
 21
47.5
 31
0.0
  0
LINE
  5
B2
330
AA
100
AcDbEntity
  8
FORMAT
 62
     0
100
AcDbLine
 10
-5.0
 20
0.0
 30
0.0
 11
-47.5
 21
0.0
 31
0.0
  0
LINE
  5
B3
330
AA
100
AcDbEntity
  8
FORMAT
 62
     0
100
AcDbLine
 10
0.0
 20
-5.0
 30
0.0
 11
0.0
 21
-47.5
 31
0.0
  0
LINE
  5
B4
330
AA
100
AcDbEntity
  8
FORMAT
 62
     0
100
AcDbLine
 10
5.0
 20
0.0
 30
0.0
 11
47.5
 21
0.0
 31
0.0
  0
ENDBLK
  5
AC
330
AA
100
AcDbEntity
  8
0
100
AcDbBlockEnd
  0
BLOCK
  5
DB
330
DA
100
AcDbEntity
  8
0
100
AcDbBlockBegin
  2
SW_CENTERMARKSYMBOL_2
 70
     0
 10
0.0
 20
0.0
 30
0.0
  3
SW_CENTERMARKSYMBOL_2
  1

  0
LINE
  5
DD
330
DA
100
AcDbEntity
  8
FORMAT
 62
     0
100
AcDbLine
 10
0.0
 20
0.0
 30
0.0
 11
0.0
 21
2.5
 31
0.0
  0
LINE
  5
DE
330
DA
100
AcDbEntity
  8
FORMAT
 62
     0
100
AcDbLine
 10
0.0
 20
0.0
 30
0.0
 11
-2.5
 21
0.0
 31
0.0
  0
LINE
  5
DF
330
DA
100
AcDbEntity
  8
FORMAT
 62
     0
100
AcDbLine
 10
0.0
 20
0.0
 30
0.0
 11
0.0
 21
-2.5
 31
0.0
  0
LINE
  5
E0
330
DA
100
AcDbEntity
  8
FORMAT
 62
     0
100
AcDbLine
 10
0.0
 20
0.0
 30
0.0
 11
2.5
 21
0.0
 31
0.0
  0
LINE
  5
E1
330
DA
100
AcDbEntity
  8
FORMAT
 62
     0
100
AcDbLine
 10
0.0
 20
5.0
 30
0.0
 11
0.0
 21
9.5
 31
0.0
  0
LINE
  5
E2
330
DA
100
AcDbEntity
  8
FORMAT
 62
     0
100
AcDbLine
 10
-5.0
 20
0.0
 30
0.0
 11
-9.5
 21
0.0
 31
0.0
  0
LINE
  5
E3
330
DA
100
AcDbEntity
  8
FORMAT
 62
     0
100
AcDbLine
 10
0.0
 20
-5.0
 30
0.0
 11
0.0
 21
-9.5
 31
0.0
  0
LINE
  5
E4
330
DA
100
AcDbEntity
  8
FORMAT
 62
     0
100
AcDbLine
 10
5.0
 20
0.0
 30
0.0
 11
9.5
 21
0.0
 31
0.0
  0
ENDBLK
  5
DC
330
DA
100
AcDbEntity
  8
0
100
AcDbBlockEnd
  0
BLOCK
  5
E7
330
E6
100
AcDbEntity
  8
0
100
AcDbBlockBegin
  2
SW_CENTERMARKSYMBOL_3
 70
     0
 10
0.0
 20
0.0
 30
0.0
  3
SW_CENTERMARKSYMBOL_3
  1

  0
LINE
  5
E9
330
E6
100
AcDbEntity
  8
FORMAT
 62
     0
100
AcDbLine
 10
0.0
 20
0.0
 30
0.0
 11
0.0
 21
2.5
 31
0.0
  0
LINE
  5
EA
330
E6
100
AcDbEntity
  8
FORMAT
 62
     0
100
AcDbLine
 10
0.0
 20
0.0
 30
0.0
 11
-2.5
 21
0.0
 31
0.0
  0
LINE
  5
EB
330
E6
100
AcDbEntity
  8
FORMAT
 62
     0
100
AcDbLine
 10
0.0
 20
0.0
 30
0.0
 11
0.0
 21
-2.5
 31
0.0
  0
LINE
  5
EC
330
E6
100
AcDbEntity
  8
FORMAT
 62
     0
100
AcDbLine
 10
0.0
 20
0.0
 30
0.0
 11
2.5
 21
0.0
 31
0.0
  0
LINE
  5
ED
330
E6
100
AcDbEntity
  8
FORMAT
 62
     0
100
AcDbLine
 10
0.0
 20
5.0
 30
0.0
 11
0.0
 21
9.5
 31
0.0
  0
LINE
  5
EE
330
E6
100
AcDbEntity
  8
FORMAT
 62
     0
100
AcDbLine
 10
-5.0
 20
0.0
 30
0.0
 11
-9.5
 21
0.0
 31
0.0
  0
LINE
  5
EF
330
E6
100
AcDbEntity
  8
FORMAT
 62
     0
100
AcDbLine
 10
0.0
 20
-5.0
 30
0.0
 11
0.0
 21
-9.5
 31
0.0
  0
LINE
  5
F0
330
E6
100
AcDbEntity
  8
FORMAT
 62
     0
100
AcDbLine
 10
5.0
 20
0.0
 30
0.0
 11
9.5
 21
0.0
 31
0.0
  0
ENDBLK
  5
E8
330
E6
100
AcDbEntity
  8
0
100
AcDbBlockEnd
  0
ENDSEC
  0
SECTION
  2
ENTITIES
  0
LINE
  5
83
330
1F
100
AcDbEntity
  8
0
  6
Continuous
 62
     7
370
    25
100
AcDbLine
 10
105.4415882732
 20
171.0659882787
 30
0.0
 11
105.4415882732
 21
194.9757955275
 31
0.0
  0
LINE
  5
84
330
1F
100
AcDbEntity
  8
0
  6
Continuous
 62
     7
370
    25
100
AcDbLine
 10
91.4415882732
 20
194.9757955275
 30
0.0
 11
91.4415882732
 21
171.0555462502
 31
0.0
  0
LINE
  5
85
330
1F
100
AcDbEntity
  8
0
  6
Continuous
 62
     7
370
    25
100
AcDbLine
 10
135.8762275137
 20
67.9757955275
 30
0.0
 11
246.4415882732
 21
67.9757955275
 31
0.0
  0
LINE
  5
86
330
1F
100
AcDbEntity
  8
0
  6
Continuous
 62
     7
370
    25
100
AcDbLine
 10
246.4415882732
 20
157.9757955275
 30
0.0
 11
135.8604990089
 21
157.9757955275
 31
0.0
  0
CIRCLE
  5
87
330
1F
100
AcDbEntity
  8
0
  6
Continuous
 62
     7
370
    25
100
AcDbCircle
 10
98.4415882732
 20
112.9757955275
 30
0.0
 40
45.0
  0
CIRCLE
  5
88
330
1F
100
AcDbEntity
  8
0
  6
Continuous
 62
     7
370
    25
100
AcDbCircle
 10
98.4415882732
 20
112.9757955275
 30
0.0
 40
58.50000000000003
  0
LINE
  5
89
330
1F
100
AcDbEntity
  8
0
  6
Continuous
 62
     7
370
    25
100
AcDbLine
 10
98.4415882732
 20
194.9757955275
 30
0.0
 11
91.4415882732
 21
194.9757955275
 31
0.0
  0
LINE
  5
8A
330
1F
100
AcDbEntity
  8
0
  6
Continuous
 62
     7
370
    25
100
AcDbLine
 10
105.4415882732
 20
194.9757955275
 30
0.0
 11
98.4415882732
 21
194.9757955275
 31
0.0
  0
LINE
  5
8B
330
1F
100
AcDbEntity
  8
0
  6
Continuous
 62
     7
370
    25
100
AcDbLine
 10
246.4415882732
 20
157.9757955275
 30
0.0
 11
246.4415882732
 21
67.9757955275
 31
0.0
  0
INSERT
  5
97
330
1F
100
AcDbEntity
  8
FORMAT
 62
     7
100
AcDbBlockReference
  2
SW_CENTERMARKSYMBOL_0
 10
98.4415882732
 20
112.9757955275
 30
0.0
  0
LINE
  5
98
330
1F
100
AcDbEntity
  8
0
  6
Continuous
 62
     7
370
    25
100
AcDbLine
 10
-254.5472935147
 20
171.4757955275
 30
0.0
 11
-255.635132842
 21
171.4757955275
 31
0.0
  0
LINE
  5
99
330
1F
100
AcDbEntity
  8
0
  6
Continuous
 62
     7
370
    25
100
AcDbLine
 10
-60.5472935147
 20
171.4757955275
 30
0.0
 11
-240.635132842
 21
171.4757955275
 31
0.0
  0
LINE
  5
9A
330
1F
100
AcDbEntity
  8
0
  6
Continuous
 62
     7
370
    25
100
AcDbLine
 10
-45.635132842
 20
171.4757955275
 30
0.0
 11
-46.635132842
 21
171.4757955275
 31
0.0
  0
LINE
  5
9B
330
1F
100
AcDbEntity
  8
0
  6
Continuous
 62
     7
370
    25
100
AcDbLine
 10
-255.635132842
 20
54.4757955275
 30
0.0
 11
-45.635132842
 21
54.4757955275
 31
0.0
  0
LINE
  5
9C
330
1F
100
AcDbEntity
  8
0
  6
Continuous
 62
     7
370
    25
100
AcDbLine
 10
-46.635132842
 20
171.4757955275
 30
0.0
 11
-46.635132842
 21
194.9757955275
 31
0.0
  0
LINE
  5
9D
330
1F
100
AcDbEntity
  8
0
  6
Continuous
 62
     7
370
    25
100
AcDbLine
 10
-60.635132842
 20
194.9757955275
 30
0.0
 11
-60.635132842
 21
171.4654136175
 31
0.0
  0
LINE
  5
9E
330
1F
100
AcDbEntity
  8
0
  6
Continuous
 62
     7
370
    25
100
AcDbLine
 10
-240.635132842
 20
171.4757955275
 30
0.0
 11
-240.635132842
 21
194.9757955275
 31
0.0
  0
LINE
  5
9F
330
1F
100
AcDbEntity
  8
0
  6
Continuous
 62
     7
370
    25
100
AcDbLine
 10
-254.635132842
 20
194.9757955275
 30
0.0
 11
-254.635132842
 21
171.4654136175
 31
0.0
  0
CIRCLE
  5
A0
330
1F
100
AcDbEntity
  8
0
  6
Continuous
 62
     7
370
    25
100
AcDbCircle
 10
-150.635132842
 20
112.9757955275
 30
0.0
 40
36.80000000000003
  0
CIRCLE
  5
A1
330
1F
100
AcDbEntity
  8
0
  6
Continuous
 62
     7
370
    25
100
AcDbCircle
 10
-150.635132842
 20
112.9757955275
 30
0.0
 40
45.00000000000003
  0
LINE
  5
A2
330
1F
100
AcDbEntity
  8
0
  6
Continuous
 62
     7
370
    25
100
AcDbLine
 10
-255.635132842
 20
112.9757955275
 30
0.0
 11
-255.635132842
 21
171.4757955275
 31
0.0
  0
LINE
  5
A3
330
1F
100
AcDbEntity
  8
0
  6
Continuous
 62
     7
370
    25
100
AcDbLine
 10
-255.635132842
 20
54.4757955275
 30
0.0
 11
-255.635132842
 21
112.9757955275
 31
0.0
  0
SPLINE
  5
A4
330
1F
100
AcDbEntity
  8
0
  6
Continuous
 62
     7
370
    25
100
AcDbSpline
210
0.0
220
0.0
230
1.0
 70
     8
 71
     3
 72
    17
 73
    13
 74
     0
 42
0.00000001
 43
0.00000001
 40
0.0
 40
0.0
 40
0.0
 40
0.0
 40
0.1068504461700554
 40
0.2136826540088685
 40
0.3209894062584943
 40
0.4286206099676699
 40
0.5357313383137428
 40
0.6422880144763499
 40
0.749121359141338
 40
0.8566284990561477
 40
0.9641599511372193
 40
1.0
 40
1.0
 40
1.0
 40
1.0
 10
-46.63513284196075
 20
171.475795527496
 30
0.0
 10
-46.71196371292617
 20
171.4663448614645
 30
0.0
 10
-46.86561234057514
 20
171.4474451425382
 30
0.0
 10
-48.06266890695517
 20
171.3158277191747
 30
0.0
 10
-49.83000909768123
 20
171.1684258929535
 30
0.0
 10
-52.04514544355092
 20
171.0613525111769
 30
0.0
 10
-54.43341006628645
 20
171.0447897095802
 30
0.0
 10
-56.72150249032813
 20
171.1240555938756
 30
0.0
 10
-58.67937872108173
 20
171.2663526257012
 30
0.0
 10
-60.02394882444889
 20
171.4026813814516
 30
0.0
 10
-60.66878346045486
 20
171.4797676449876
 30
0.0
 10
-60.57158997105053
 20
171.4682588566803
 30
0.0
 10
-60.54729351473624
 20
171.4653818864835
 30
0.0
  0
SPLINE
  5
A5
330
1F
100
AcDbEntity
  8
0
  6
Continuous
 62
     7
370
    25
100
AcDbSpline
210
0.0
220
0.0
230
1.0
 70
     8
 71
     3
 72
    17
 73
    13
 74
     0
 42
0.00000001
 43
0.00000001
 40
0.0
 40
0.0
 40
0.0
 40
0.0
 40
0.1068504461700554
 40
0.2136826540088686
 40
0.3209894062584944
 40
0.42862060996767
 40
0.5357313383137429
 40
0.64228801447635
 40
0.7491213591413382
 40
0.8566284990561478
 40
0.9641599511372195
 40
1.0
 40
1.0
 40
1.0
 40
1.0
 10
-240.6351328419607
 20
171.475795527496
 30
0.0
 10
-240.7119637129262
 20
171.4663448614645
 30
0.0
 10
-240.8656123405751
 20
171.4474451425382
 30
0.0
 10
-242.0626689069551
 20
171.3158277191747
 30
0.0
 10
-243.8300090976813
 20
171.1684258929535
 30
0.0
 10
-246.045145443551
 20
171.0613525111769
 30
0.0
 10
-248.4334100662865
 20
171.0447897095802
 30
0.0
 10
-250.7215024903281
 20
171.1240555938756
 30
0.0
 10
-252.6793787210817
 20
171.2663526257012
 30
0.0
 10
-254.0239488244489
 20
171.4026813814515
 30
0.0
 10
-254.6687834604548
 20
171.4797676449877
 30
0.0
 10
-254.5715899710505
 20
171.4682588566803
 30
0.0
 10
-254.5472935147363
 20
171.4653818864835
 30
0.0
  0
LINE
  5
A6
330
1F
100
AcDbEntity
  8
0
  6
Continuous
 62
     7
370
    25
100
AcDbLine
 10
-45.635132842
 20
112.9757955275
 30
0.0
 11
-45.635132842
 21
171.4757955275
 31
0.0
  0
LINE
  5
A7
330
1F
100
AcDbEntity
  8
0
  6
Continuous
 62
     7
370
    25
100
AcDbLine
 10
-45.635132842
 20
54.4757955275
 30
0.0
 11
-45.635132842
 21
112.9757955275
 31
0.0
  0
LINE
  5
A8
330
1F
100
AcDbEntity
  8
0
  6
Continuous
 62
     7
370
    25
100
AcDbLine
 10
-46.635132842
 20
194.9757955275
 30
0.0
 11
-60.635132842
 21
194.9757955275
 31
0.0
  0
LINE
  5
A9
330
1F
100
AcDbEntity
  8
0
  6
Continuous
 62
     7
370
    25
100
AcDbLine
 10
-240.635132842
 20
194.9757955275
 30
0.0
 11
-254.635132842
 21
194.9757955275
 31
0.0
  0
INSERT
  5
B5
330
1F
100
AcDbEntity
  8
FORMAT
 62
     7
100
AcDbBlockReference
  2
SW_CENTERMARKSYMBOL_1
 10
-150.635132842
 20
112.9757955275
 30
0.0
  0
LINE
  5
B6
330
1F
100
AcDbEntity
  8
0
  6
Continuous
 62
     7
370
    25
100
AcDbLine
 10
156.9415882732
 20
410.4951377367
 30
0.0
 11
156.9415882732
 21
470.4951377367
 31
0.0
  0
LINE
  5
B7
330
1F
100
AcDbEntity
  8
0
  6
Continuous
 62
     7
370
    25
100
AcDbLine
 10
156.9415882732
 20
260.4951377367
 30
0.0
 11
156.9415882732
 21
320.5281293321
 31
0.0
  0
LINE
  5
B8
330
1F
100
AcDbEntity
  8
0
  6
Continuous
 62
     7
370
    25
100
AcDbLine
 10
39.9415882732
 20
470.4951377367
 30
0.0
 11
39.9415882732
 21
260.4951377367
 31
0.0
  0
LINE
  5
B9
330
1F
100
AcDbEntity
  8
0
  6
Continuous
 62
     7
370
    25
100
AcDbLine
 10
156.9161741506
 20
320.4951377367
 30
0.0
 11
246.4415882732
 21
320.4951377367
 31
0.0
  0
LINE
  5
BA
330
1F
100
AcDbEntity
  8
0
  6
Continuous
 62
     7
370
    25
100
AcDbLine
 10
246.4415882732
 20
410.4951377367
 30
0.0
 11
156.9415882732
 21
410.4951377367
 31
0.0
  0
SPLINE
  5
BB
330
1F
100
AcDbEntity
  8
0
  6
Continuous
 62
     7
370
    25
100
AcDbSpline
210
0.0
220
0.0
230
1.0
 70
     8
 71
     3
 72
    48
 73
    44
 74
     0
 42
0.00000001
 43
0.00000001
 40
0.0
 40
0.0
 40
0.0
 40
0.0
 40
0.0216791428458661
 40
0.0433589405500929
 40
0.0657564175725243
 40
0.0881558015635447
 40
0.1098117039673959
 40
0.1314696334557633
 40
0.153656452565341
 40
0.1758452994585455
 40
0.1995984645002381
 40
0.2233535742227384
 40
0.2475790904423719
 40
0.2718056493634446
 40
0.3005301207554503
 40
0.3292534435354197
 40
0.3587756761589513
 40
0.3882894994877866
 40
0.425333201526631
 40
0.4443046436255511
 40
0.4632723679557914
 40
0.4818532204851506
 40
0.500432382860276
 40
0.51972205965321
 40
0.5390138435846424
 40
0.5717931303627946
 40
0.6052502541416644
 40
0.6323411716334492
 40
0.6594391550851049
 40
0.6872823276684319
 40
0.7151273967556336
 40
0.7431364092632177
 40
0.7711439883892098
 40
0.7998927973804116
 40
0.8286374629891445
 40
0.8515226239593593
 40
0.8744054397538884
 40
0.8979043581016016
 40
0.9214004937197521
 40
0.9443222835096556
 40
0.9672422070309691
 40
0.9910166754032758
 40
1.0
 40
1.0
 40
1.0
 40
1.0
 10
156.9415882731743
 20
410.4951377367054
 30
0.0
 10
156.9242573865122
 20
410.4726528910201
 30
0.0
 10
156.8895950896765
 20
410.4276825204533
 30
0.0
 10
156.6117623878916
 20
410.06580128559
 30
0.0
 10
156.1656568126618
 20
409.48259138424
 30
0.0
 10
155.5484407324431
 20
408.6698714044124
 30
0.0
 10
154.7865815410875
 20
407.6578061487558
 30
0.0
 10
153.8939659159841
 20
406.4581136417949
 30
0.0
 10
152.8725816799524
 20
405.0658128778589
 30
0.0
 10
151.7107825876769
 20
403.4534287910243
 30
0.0
 10
150.4253774356419
 20
401.6300178343674
 30
0.0
 10
149.0219666367504
 20
399.5824266145562
 30
0.0
 10
147.5483020054705
 20
397.3584891523408
 30
0.0
 10
145.9332973191449
 20
394.8154808399231
 30
0.0
 10
144.2057262536405
 20
391.9401212009774
 30
0.0
 10
142.3922798765238
 20
388.6712361683637
 30
0.0
 10
140.6383056135112
 20
385.1631339449596
 30
0.0
 10
138.8784476058366
 20
381.0896162273021
 30
0.0
 10
137.5560554774003
 20
377.2270395362529
 30
0.0
 10
136.6791999604197
 20
373.6909449837746
 30
0.0
 10
136.185536520248
 20
370.9593419408652
 30
0.0
 10
135.8864243598327
 20
368.1986868552845
 30
0.0
 10
135.7853628861389
 20
365.397368000335
 30
0.0
 10
135.9013352990384
 20
362.5611499813875
 30
0.0
 10
136.3071969593845
 20
359.0562600381691
 30
0.0
 10
137.1919219288829
 20
354.9588915155344
 30
0.0
 10
138.581111691815
 20
350.7131593145132
 30
0.0
 10
140.1351144006665
 20
346.941630238361
 30
0.0
 10
141.7342812987663
 20
343.5945455944004
 30
0.0
 10
143.4369391602412
 20
340.402964472499
 30
0.0
 10
145.2020486742344
 20
337.36860409885
 30
0.0
 10
146.9692139900955
 20
334.5241187475781
 30
0.0
 10
148.7171376075213
 20
331.8561865151368
 30
0.0
 10
150.4017561791023
 20
329.3898111203287
 30
0.0
 10
151.8773031836296
 20
327.302308573901
 30
0.0
 10
153.1238468736627
 20
325.5795373095742
 30
0.0
 10
154.1651677959466
 20
324.1656956642677
 30
0.0
 10
155.0747791343331
 20
322.9480194230586
 30
0.0
 10
155.8240251526832
 20
321.956714128596
 30
0.0
 10
156.3942063966519
 20
321.2083710433621
 30
0.0
 10
156.7683844652837
 20
320.720393964531
 30
0.0
 10
156.9461376046289
 20
320.4890958175252
 30
0.0
 10
156.9226220133264
 20
320.5197287249111
 30
0.0
 10
156.9161732214326
 20
320.528129332078
 30
0.0
  0
LINE
  5
BC
330
1F
100
AcDbEntity
  8
0
  6
Continuous
 62
     7
370
    25
100
AcDbLine
 10
39.9415882732
 20
470.4951377367
 30
0.0
 11
156.9415882732
 21
470.4951377367
 31
0.0
  0
LINE
  5
BD
330
1F
100
AcDbEntity
  8
0
  6
Continuous
 62
     7
370
    25
100
AcDbLine
 10
39.9415882732
 20
260.4951377367
 30
0.0
 11
156.9415882732
 21
260.4951377367
 31
0.0
  0
LINE
  5
BE
330
1F
100
AcDbEntity
  8
0
  6
Continuous
 62
     7
370
    25
100
AcDbLine
 10
246.4415882732
 20
410.4951377367
 30
0.0
 11
246.4415882732
 21
320.4951377367
 31
0.0
  0
LINE
  5
BF
330
1F
100
AcDbEntity
  8
0
  6
Continuous
 62
     7
370
    25
100
AcDbLine
 10
291.3917298488
 20
54.4757955275
 30
0.0
 11
501.3917298488
 21
54.4757955275
 31
0.0
  0
LINE
  5
C0
330
1F
100
AcDbEntity
  8
0
  6
Continuous
 62
     7
370
    25
100
AcDbLine
 10
292.3917298488
 20
171.4757955275
 30
0.0
 11
291.3917298488
 21
171.4757955275
 31
0.0
  0
LINE
  5
C1
330
1F
100
AcDbEntity
  8
0
  6
Continuous
 62
     7
370
    25
100
AcDbLine
 10
486.3917298488
 20
171.4757955275
 30
0.0
 11
306.3038905216
 21
171.4757955275
 31
0.0
  0
LINE
  5
C2
330
1F
100
AcDbEntity
  8
0
  6
Continuous
 62
     7
370
    25
100
AcDbLine
 10
501.3917298488
 20
171.4757955275
 30
0.0
 11
500.3038905216
 21
171.4757955275
 31
0.0
  0
LINE
  5
C3
330
1F
100
AcDbEntity
  8
0
  6
Continuous
 62
     7
370
    25
100
AcDbLine
 10
306.3917298488
 20
171.4757955275
 30
0.0
 11
306.3917298488
 21
194.9757955275
 31
0.0
  0
LINE
  5
C4
330
1F
100
AcDbEntity
  8
0
  6
Continuous
 62
     7
370
    25
100
AcDbLine
 10
292.3917298488
 20
194.9757955275
 30
0.0
 11
292.3917298488
 21
171.4757955275
 31
0.0
  0
LINE
  5
C5
330
1F
100
AcDbEntity
  8
0
  6
Continuous
 62
     7
370
    25
100
AcDbLine
 10
500.3917298488
 20
171.4757955275
 30
0.0
 11
500.3917298488
 21
194.9757955275
 31
0.0
  0
LINE
  5
C6
330
1F
100
AcDbEntity
  8
0
  6
Continuous
 62
     7
370
    25
100
AcDbLine
 10
486.3917298488
 20
194.9757955275
 30
0.0
 11
486.3917298488
 21
171.4757955275
 31
0.0
  0
LINE
  5
C7
330
1F
100
AcDbEntity
  8
0
  6
Continuous
 62
     7
370
    25
100
AcDbLine
 10
501.3917298488
 20
171.4757955275
 30
0.0
 11
501.3917298488
 21
54.4757955275
 31
0.0
  0
ARC
  5
C8
330
1F
100
AcDbEntity
  8
0
  6
Continuous
 62
     7
370
    25
100
AcDbCircle
 10
299.3914352496
 20
229.7517321635
 30
0.0
 40
58.69480953629306
100
AcDbArc
 50
263.1508365752
 51
276.7633884569
  0
ARC
  5
C9
330
1F
100
AcDbEntity
  8
0
  6
Continuous
 62
     7
370
    25
100
AcDbCircle
 10
493.3914352496
 20
229.7517321635
 30
0.0
 40
58.69480953627995
100
AcDbArc
 50
263.1508365752
 51
276.7633884569
  0
LINE
  5
CA
330
1F
100
AcDbEntity
  8
0
  6
Continuous
 62
     7
370
    25
100
AcDbLine
 10
291.3917298488
 20
171.4757955275
 30
0.0
 11
291.3917298488
 21
54.4757955275
 31
0.0
  0
LINE
  5
CB
330
1F
100
AcDbEntity
  8
0
  6
Continuous
 62
     7
370
    25
100
AcDbLine
 10
306.3917298488
 20
194.9757955275
 30
0.0
 11
292.3917298488
 21
194.9757955275
 31
0.0
  0
LINE
  5
CC
330
1F
100
AcDbEntity
  8
0
  6
Continuous
 62
     7
370
    25
100
AcDbLine
 10
500.3917298488
 20
194.9757955275
 30
0.0
 11
486.3917298488
 21
194.9757955275
 31
0.0
  0
LINE
  5
CD
330
1F
100
AcDbEntity
  8
0
  6
Continuous
 62
     7
370
    25
100
AcDbLine
 10
39.9415882732
 20
-5.0643021542
 30
0.0
 11
39.9415882732
 21
-215.0643021542
 31
0.0
  0
LINE
  5
CE
330
1F
100
AcDbEntity
  8
0
  6
Continuous
 62
     7
370
    25
100
AcDbLine
 10
156.9415882732
 20
-65.0972937496
 30
0.0
 11
156.9415882732
 21
-5.0643021542
 31
0.0
  0
LINE
  5
CF
330
1F
100
AcDbEntity
  8
0
  6
Continuous
 62
     7
370
    25
100
AcDbLine
 10
156.9415882732
 20
-215.0643021542
 30
0.0
 11
156.9415882732
 21
-155.0643021542
 31
0.0
  0
LINE
  5
D0
330
1F
100
AcDbEntity
  8
0
  6
Continuous
 62
     7
370
    25
100
AcDbLine
 10
156.9415882732
 20
-155.0643021542
 30
0.0
 11
246.4415882732
 21
-155.0643021542
 31
0.0
  0
LINE
  5
D1
330
1F
100
AcDbEntity
  8
0
  6
Continuous
 62
     7
370
    25
100
AcDbLine
 10
246.4415882732
 20
-65.0643021542
 30
0.0
 11
156.9161741506
 21
-65.0643021542
 31
0.0
  0
CIRCLE
  5
D2
330
1F
100
AcDbEntity
  8
0
  6
Continuous
 62
     7
370
    25
100
AcDbCircle
 10
98.4415882732
 20
-13.0643021542
 30
0.0
 40
5.000000000000005
  0
CIRCLE
  5
D3
330
1F
100
AcDbEntity
  8
0
  6
Continuous
 62
     7
370
    25
100
AcDbCircle
 10
98.4415882732
 20
-13.0643021542
 30
0.0
 40
7.00000000000002
  0
CIRCLE
  5
D4
330
1F
100
AcDbEntity
  8
0
  6
Continuous
 62
     7
370
    25
100
AcDbCircle
 10
98.4415882732
 20
-207.0643021542
 30
0.0
 40
5.0
  0
CIRCLE
  5
D5
330
1F
100
AcDbEntity
  8
0
  6
Continuous
 62
     7
370
    25
100
AcDbCircle
 10
98.4415882732
 20
-207.0643021542
 30
0.0
 40
7.000000000000028
  0
LWPOLYLINE
  5
D6
330
1F
100
AcDbEntity
  8
0
  6
Continuous
 62
     7
370
    25
100
AcDbPolyline
 90
       44
 70
   128
 43
0.0
 10
156.9161732214
 20
-65.0972937496
 10
156.9001811673
 20
-65.1181445525
 10
156.7088506123
 20
-65.3672349028
 10
156.3662723797
 20
-65.8147933565
 10
155.8625766436
 20
-66.4761899097
 10
155.2158561834
 20
-67.3317911497
 10
154.4438677886
 20
-68.3628858396
 10
153.5554992357
 20
-69.5637690517
 10
152.5416332499
 20
-70.9546128073
 10
151.4354571604
 20
-72.49968929
 10
150.0829651485
 20
-74.4330216759
 10
148.6528104625
 20
-76.5394332694
 10
147.1371682925
 20
-78.8550075522
 10
145.5889666745
 20
-81.3306060794
 10
143.7586067589
 20
-84.4437509965
 10
141.9672382374
 20
-87.7655980481
 10
140.2211940141
 20
-91.4011155316
 10
138.6482372448
 20
-95.2546896837
 10
137.0970352845
 20
-100.215770099
 10
136.5088663125
 20
-102.8641475604
 10
136.0907019319
 20
-105.569220477
 10
135.8656950309
 20
-108.2548835884
 10
135.8320304218
 20
-110.956021882
 10
136.0029385388
 20
-113.7472255771
 10
136.3723111852
 20
-116.5055551865
 10
136.9713305902
 20
-119.4060169432
 10
137.750203956
 20
-122.2264264299
 10
138.7059949532
 20
-125.030010684
 10
139.7858082873
 20
-127.7304994977
 10
141.4323481375
 20
-131.3007583702
 10
143.1911607943
 20
-134.6666240126
 10
145.0544112353
 20
-137.9127203842
 10
146.9225472232
 20
-140.9374843794
 10
148.7333600867
 20
-143.709945147
 10
150.4607782923
 20
-146.2408985979
 10
152.1132330467
 20
-148.5793400518
 10
153.5890009206
 20
-150.6104132094
 10
154.5093643316
 20
-151.8536413381
 10
155.301876532
 20
-152.9110334283
 10
155.9671393783
 20
-153.7900814632
 10
156.4683437137
 20
-154.4473433631
 10
156.8210638236
 20
-154.9075086134
 10
156.9415882732
 20
-155.0643021542
 10
156.9415882732
 20
-155.0643021542
  0
LINE
  5
D7
330
1F
100
AcDbEntity
  8
0
  6
Continuous
 62
     7
370
    25
100
AcDbLine
 10
156.9415882732
 20
-215.0643021542
 30
0.0
 11
39.9415882732
 21
-215.0643021542
 31
0.0
  0
LINE
  5
D8
330
1F
100
AcDbEntity
  8
0
  6
Continuous
 62
     7
370
    25
100
AcDbLine
 10
156.9415882732
 20
-5.0643021542
 30
0.0
 11
39.9415882732
 21
-5.0643021542
 31
0.0
  0
LINE
  5
D9
330
1F
100
AcDbEntity
  8
0
  6
Continuous
 62
     7
370
    25
100
AcDbLine
 10
246.4415882732
 20
-65.0643021542
 30
0.0
 11
246.4415882732
 21
-155.0643021542
 31
0.0
  0
INSERT
  5
E5
330
1F
100
AcDbEntity
  8
FORMAT
 62
     7
100
AcDbBlockReference
  2
SW_CENTERMARKSYMBOL_2
 10
98.4415882732
 20
-13.0643021542
 30
0.0
  0
INSERT
  5
F1
330
1F
100
AcDbEntity
  8
FORMAT
 62
     7
100
AcDbBlockReference
  2
SW_CENTERMARKSYMBOL_3
 10
98.4415882732
 20
-207.0643021542
 30
0.0
  0
LINE
  5
F2
330
1F
100
AcDbEntity
  8
0
  6
Continuous
 62
     7
370
    25
100
AcDbLine
 10
462.838672904
 20
-141.6762429181
 30
0.0
 11
532.7856450303
 21
-101.2967154121
 31
0.0
  0
LINE
  5
F3
330
1F
100
AcDbEntity
  8
0
  6
Continuous
 62
     7
370
    25
100
AcDbLine
 10
487.7893020616
 20
-23.3523177978
 30
0.0
 11
417.8417826585
 21
-63.7321612401
 31
0.0
  0
LINE
  5
F4
330
1F
100
AcDbEntity
  8
0
  6
Continuous
 62
     7
370
    25
100
AcDbLine
 10
419.1367671289
 20
-62.984582618
 30
0.0
 11
360.6370808354
 21
-29.2134325598
 31
0.0
  0
LINE
  5
F5
330
1F
100
AcDbEntity
  8
0
  6
Continuous
 62
     7
370
    25
100
AcDbLine
 10
302.1418349761
 20
-130.5411494584
 30
0.0
 11
450.6342590253
 21
-216.2640011998
 31
0.0
  0
LINE
  5
F6
330
1F
100
AcDbEntity
  8
0
  6
Continuous
 62
     7
370
    25
100
AcDbLine
 10
344.0463121552
 20
-27.093953437
 30
0.0
 11
344.0463121552
 21
-16.1865768818
 31
0.0
  0
LINE
  5
F7
330
1F
100
AcDbEntity
  8
0
  6
Continuous
 62
     7
370
    25
100
AcDbLine
 10
330.0463121552
 20
-16.1865768818
 30
0.0
 11
330.0463121552
 21
-32.9102224215
 31
0.0
  0
LWPOLYLINE
  5
F8
330
1F
100
AcDbEntity
  8
0
  6
Continuous
 62
     7
370
    25
100
AcDbPolyline
 90
       81
 70
   128
 43
0.0
 10
536.3090030936
 20
-77.3464258625
 10
536.2287874023
 20
-74.9425243524
 10
535.9886348846
 20
-72.4608286287
 10
535.5900261608
 20
-69.9166391707
 10
535.0354187862
 20
-67.3256417525
 10
534.3282320997
 20
-64.7038107346
 10
533.4728261423
 20
-62.0673105773
 10
532.4744747762
 20
-59.4323961807
 10
531.3393331696
 20
-56.8153126682
 10
530.074399848
 20
-54.2321952299
 10
528.6874735459
 20
-51.6989696439
 10
527.1871051252
 20
-49.2312540883
 10
525.5825448562
 20
-46.8442628501
 10
523.8836853863
 20
-44.5527125239
 10
522.1010007493
 20
-42.3707312796
 10
520.2454817886
 20
-40.3117717572
 10
518.3285683958
 20
-38.3885281268
 10
516.3620789793
 20
-36.6128578248
 10
514.3581376003
 20
-34.9957084492
 10
512.3290992237
 20
-33.5470502636
 10
510.2874735459
 20
-32.2758147275
 10
508.2458478682
 20
-31.1898394307
 10
506.2168094916
 20
-30.295819772
 10
504.2128681126
 20
-29.5992676799
 10
502.2463786961
 20
-29.1044776297
 10
500.3294653033
 20
-28.8145001665
 10
498.4739463426
 20
-28.7311230979
 10
496.6912617056
 20
-28.8548604712
 10
494.9924022357
 20
-29.1849494043
 10
493.3878419666
 20
-29.7193547893
 10
491.8874735459
 20
-30.4547818392
 10
490.5005472439
 20
-31.3866964017
 10
489.2356139223
 20
-32.5093529135
 10
488.1004723157
 20
-33.8158298241
 10
487.1021209496
 20
-35.2980722688
 10
486.2467149922
 20
-36.9469417301
 10
485.5395283057
 20
-38.7522723793
 10
484.9849209311
 20
-40.7029337528
 10
484.5863122073
 20
-42.7868993744
 10
484.3461596896
 20
-44.9913209032
 10
484.2659439983
 20
-47.3026073474
 10
484.3461596896
 20
-49.7065088574
 10
484.5863122073
 20
-52.1882045811
 10
484.9849209311
 20
-54.7323940391
 10
485.5395283057
 20
-57.3233914574
 10
486.2467149922
 20
-59.9452224752
 10
487.1021209496
 20
-62.5817226325
 10
488.1004723157
 20
-65.2166370292
 10
489.2356139223
 20
-67.8337205417
 10
490.5005472439
 20
-70.4168379799
 10
491.8874735459
 20
-72.9500635659
 10
493.3878419666
 20
-75.4177791215
 10
494.9924022357
 20
-77.8047703598
 10
496.6912617056
 20
-80.0963206859
 10
498.4739463426
 20
-82.2783019302
 10
500.3294653033
 20
-84.3372614526
 10
502.2463786961
 20
-86.2605050831
 10
504.2128681126
 20
-88.0361753851
 10
506.2168094916
 20
-89.6533247607
 10
508.2458478682
 20
-91.1019829462
 10
510.2874735459
 20
-92.3732184823
 10
512.3290992237
 20
-93.4591937791
 10
514.3581376003
 20
-94.3532134378
 10
516.3620789793
 20
-95.0497655299
 10
518.3285683958
 20
-95.5445555802
 10
520.2454817886
 20
-95.8345330433
 10
522.1010007493
 20
-95.9179101119
 10
523.8836853863
 20
-95.7941727386
 10
525.5825448562
 20
-95.4640838055
 10
527.1871051252
 20
-94.9296784205
 10
528.6874735459
 20
-94.1942513707
 10
530.074399848
 20
-93.2623368082
 10
531.3393331696
 20
-92.1396802963
 10
532.4744747762
 20
-90.8332033857
 10
533.4728261423
 20
-89.350960941
 10
534.3282320997
 20
-87.7020914798
 10
535.0354187862
 20
-85.8967608305
 10
535.5900261608
 20
-83.9460994571
 10
535.9886348846
 20
-81.8621338354
 10
536.2287874023
 20
-79.6577123066
 10
536.3090030936
 20
-77.3464258625
  0
LWPOLYLINE
  5
F9
330
1F
100
AcDbEntity
  8
0
  6
Continuous
 62
     7
370
    25
100
AcDbPolyline
 90
       90
 70
   128
 43
0.0
 10
542.1072786993
 20
-80.6936991209
 10
542.028016365
 20
-78.0560346994
 10
541.7906242429
 20
-75.3399966461
 10
541.3962850087
 20
-72.5591161259
 10
540.8469632407
 20
-69.7272473456
 10
540.1453956321
 20
-66.8584985333
 10
539.2950773576
 20
-63.967161651
 10
538.3002446601
 20
-61.0676411937
 10
537.165853746
 20
-58.1743824265
 10
535.8975560937
 20
-55.301799419
 10
534.5016702984
 20
-52.4642032353
 10
532.9851505928
 20
-49.6757306368
 10
531.355552202
 20
-46.9502736537
 10
529.6209937031
 20
-44.3014103757
 10
527.7901165792
 20
-41.7423373063
 10
525.8720421682
 20
-39.2858036189
 10
523.8763262202
 20
-36.9440476406
 10
521.8129112917
 20
-34.7287358821
 10
519.6920772121
 20
-32.6509049151
 10
517.5243898701
 20
-30.7209063888
 10
515.3206485751
 20
-28.9483554589
 10
513.0918322552
 20
-27.342082885
 10
510.8490447613
 20
-25.9100910363
 10
508.6034595478
 20
-24.6595140239
 10
506.3662640074
 20
-23.5965821599
 10
504.1486037356
 20
-22.7265909172
 10
501.9615270044
 20
-22.0538745484
 10
499.8159297202
 20
-21.5817844927
 10
497.7225011405
 20
-21.3126726789
 10
495.6916706213
 20
-21.2478798086
 10
493.733555658
 20
-21.3877286766
 10
491.857911481
 20
-21.7315225629
 10
490.0740824552
 20
-22.2775487036
 10
488.3909555271
 20
-23.023086824
 10
486.8169159502
 20
-23.9644226906
 10
485.3598055107
 20
-25.0968666156
 10
484.0268834595
 20
-26.4147768201
 10
482.8247903471
 20
-27.911587542
 10
481.759514941
 20
-29.5798417454
 10
480.8363643897
 20
-31.4112282719
 10
480.0599377827
 20
-33.3966232459
 10
479.4341032385
 20
-35.5261355294
 10
478.9619786331
 20
-37.7891559995
 10
478.6459160677
 20
-40.174410402
 10
478.48749015
 20
-42.6700155194
 10
478.48749015
 20
-45.2635383725
 10
478.6459160677
 20
-47.942058161
 10
478.9619786331
 20
-50.692230634
 10
479.4341032385
 20
-53.5003545706
 10
480.0599377827
 20
-56.3524400385
 10
480.8363643897
 20
-59.2342780915
 10
481.759514941
 20
-62.1315115574
 10
482.8247903471
 20
-65.0297065647
 10
484.0268834595
 20
-67.9144244517
 10
485.3598055107
 20
-70.7712936989
 10
486.8169159502
 20
-73.5860815276
 10
488.3909555271
 20
-76.3447648063
 10
490.0740824552
 20
-79.0335999137
 10
491.857911481
 20
-81.6391912086
 10
493.733555658
 20
-84.1485577661
 10
495.6916706213
 20
-86.5491980484
 10
497.7225011405
 20
-88.8291521862
 10
499.8159297202
 20
-90.9770615628
 10
501.9615270044
 20
-92.9822254017
 10
504.1486037356
 20
-94.8346540775
 10
506.3662640074
 20
-96.5251188837
 10
508.6034595478
 20
-98.0451980097
 10
510.8490447613
 20
-99.3873184977
 10
513.0918322552
 20
-100.5447939711
 10
515.3206485751
 20
-101.5118579451
 10
517.5243898701
 20
-102.2836925557
 10
519.6920772121
 20
-102.8564525618
 10
521.8129112917
 20
-103.2272845018
 10
523.8763262202
 20
-103.3943409095
 10
525.8720421682
 20
-103.3567895185
 10
527.7901165792
 20
-103.1148174078
 10
529.6209937031
 20
-102.6696300703
 10
531.355552202
 20
-102.0234454069
 10
532.9851505928
 20
-101.1794826772
 10
534.5016702984
 20
-100.141946461
 10
535.8975560937
 20
-98.9160057115
 10
537.165853746
 20
-97.5077680038
 10
538.3002446601
 20
-95.9242491075
 10
539.2950773576
 20
-94.1733380339
 10
540.1453956321
 20
-92.2637577341
 10
540.8469632407
 20
-90.2050216409
 10
541.3962850087
 20
-88.0073862741
 10
541.7906242429
 20
-85.6818001425
 10
542.028016365
 20
-83.2398491992
 10
542.1072786993
 20
-80.6936991209
  0
SPLINE
  5
FA
330
1F
100
AcDbEntity
  8
0
  6
Continuous
 62
     7
370
    25
100
AcDbSpline
210
0.0
220
0.0
230
1.0
 70
     8
 71
     3
 72
    38
 73
    34
 74
     0
 42
0.00000001
 43
0.00000001
 40
0.0
 40
0.0
 40
0.0
 40
0.0
 40
0.0288209338083973
 40
0.0576427382060794
 40
0.087418648043847
 40
0.117197093065587
 40
0.1459871302999937
 40
0.1747798624042614
 40
0.2042757169923478
 40
0.2337742673797148
 40
0.2653524714754131
 40
0.2969332608908926
 40
0.3291394234870972
 40
0.3613469722833642
 40
0.3995341872741108
 40
0.4377198752639191
 40
0.4769676591070499
 40
0.5162042633695331
 40
0.5654513250301424
 40
0.5906725563708031
 40
0.6158888451929427
 40
0.6405908144847945
 40
0.6652905368324915
 40
0.6909348393765165
 40
0.7165819432166823
 40
0.7601597572122084
 40
0.804638709018831
 40
0.8406542261170249
 40
0.8766791369243326
 40
0.9136947255822979
 40
0.9507128355121156
 40
0.9879488969772292
 40
1.0
 40
1.0
 40
1.0
 40
1.0
 10
415.1816114763536
 20
-80.48959709297694
 30
0.0
 10
415.1852558757288
 20
-81.38420464671341
 30
0.0
 10
415.1925447845651
 20
-83.173446777452
 30
0.0
 10
415.2519760722537
 20
-86.0771985740169
 30
0.0
 10
415.3489234709832
 20
-89.12519107617582
 30
0.0
 10
415.487165604145
 20
-92.27212825948413
 30
0.0
 10
415.6640880089064
 20
-95.45167815311414
 30
0.0
 10
415.8812241544134
 20
-98.66408153793562
 30
0.0
 10
416.1435017465487
 20
-101.9250986561936
 30
0.0
 10
416.4621134517023
 20
-105.292269409317
 30
0.0
 10
416.8425410044683
 20
-108.7211791418913
 30
0.0
 10
417.2980453484083
 20
-112.214717781737
 30
0.0
 10
417.8285683549024
 20
-115.6789003284271
 30
0.0
 10
418.4847660118793
 20
-119.3086173064418
 30
0.0
 10
419.2963750955213
 20
-123.048683224332
 30
0.0
 10
420.3255256384506
 20
-126.8886039510496
 30
0.0
 10
421.5658814142118
 20
-130.5893464439332
 30
0.0
 10
423.2018858849081
 20
-134.4038567619354
 30
0.0
 10
424.9980676130181
 20
-137.5095366960737
 30
0.0
 10
426.878433571276
 20
-139.9373865871479
 30
0.0
 10
428.4608958296875
 20
-141.5969687167748
 30
0.0
 10
430.2014695631424
 20
-143.0505912315921
 30
0.0
 10
432.1108397219839
 20
-144.303322427635
 30
0.0
 10
434.1983541624651
 20
-145.3357033229092
 30
0.0
 10
436.9636705122403
 20
-146.322789724854
 30
0.0
 10
440.4865595688615
 20
-147.0155026644248
 30
0.0
 10
444.4709853184418
 20
-147.1509000748353
 30
0.0
 10
448.2369062185475
 20
-146.8152257406617
 30
0.0
 10
451.7337125616876
 20
-146.1531025268351
 30
0.0
 10
455.1972325614061
 20
-145.170496960754
 30
0.0
 10
458.5805504515225
 20
-143.8581083619734
 30
0.0
 10
461.1351669429369
 20
-142.6766248245488
 30
0.0
 10
462.4897054924128
 20
-141.8485336794544
 30
0.0
 10
462.8209009218448
 20
-141.6460588200165
 30
0.0
  0
SPLINE
  5
FB
330
1F
100
AcDbEntity
  8
0
  6
Continuous
 62
     7
370
    25
100
AcDbSpline
210
0.0
220
0.0
230
1.0
 70
     8
 71
     3
 72
    17
 73
    13
 74
     0
 42
0.00000001
 43
0.00000001
 40
0.0
 40
0.0
 40
0.0
 40
0.0
 40
0.0794141523500688
 40
0.1980022040178639
 40
0.3204578491156973
 40
0.4428871110673087
 40
0.5302836214109072
 40
0.6176719528539678
 40
0.7074579088218177
 40
0.7972359284893422
 40
0.89807288539113
 40
1.0
 40
1.0
 40
1.0
 40
1.0
 10
417.861573583771
 20
-63.76576713918708
 30
0.0
 10
417.705387619565
 20
-63.85564138235171
 30
0.0
 10
417.3159713224152
 20
-64.07972358564197
 30
0.0
 10
416.8189754344033
 20
-64.83942414254274
 30
0.0
 10
416.3368904213524
 20
-66.03482415784161
 30
0.0
 10
415.9838334901103
 20
-67.51131756525606
 30
0.0
 10
415.7251989070564
 20
-69.126296846788
 30
0.0
 10
415.5364882356435
 20
-70.78596276521904
 30
0.0
 10
415.3866623096148
 20
-72.68801750061886
 30
0.0
 10
415.2725355110211
 20
-74.92498052149769
 30
0.0
 10
415.1963344663662
 20
-77.49558737718651
 30
0.0
 10
415.1865366988699
 20
-79.48802308839865
 30
0.0
 10
415.1816114763536
 20
-80.48959709297694
 30
0.0
  0
LWPOLYLINE
  5
FC
330
1F
100
AcDbEntity
  8
0
  6
Continuous
 62
     7
370
    25
100
AcDbPolyline
 90
       90
 70
   128
 43
0.0
 10
363.2092630591
 20
-61.5081084931
 10
363.1300007248
 20
-58.9619584149
 10
362.8926086027
 20
-56.5200074716
 10
362.4982693685
 20
-54.1944213399
 10
361.9489476005
 20
-51.9967859731
 10
361.2473799919
 20
-49.9380498799
 10
360.3970617174
 20
-48.0284695801
 10
359.4022290199
 20
-46.2775585065
 10
358.2678381058
 20
-44.6940396102
 10
356.9995404535
 20
-43.2858019026
 10
355.6036546582
 20
-42.0598611531
 10
354.0871349527
 20
-41.0223249368
 10
352.4575365618
 20
-40.1783622071
 10
350.7229780629
 20
-39.5321775437
 10
348.892100939
 20
-39.0869902062
 10
346.974026528
 20
-38.8450180955
 10
344.97831058
 20
-38.8074667045
 10
342.9148956515
 20
-38.9745231123
 10
340.7940615719
 20
-39.3453550522
 10
338.62637423
 20
-39.9181150583
 10
336.4226329349
 20
-40.6899496689
 10
334.193816615
 20
-41.657013643
 10
331.9510291211
 20
-42.8144891163
 10
329.7054439076
 20
-44.1566096044
 10
327.4682483672
 20
-45.6766887304
 10
325.2505880954
 20
-47.3671535366
 10
323.0635113642
 20
-49.2195822124
 10
320.91791408
 20
-51.2247460512
 10
318.8244855003
 20
-53.3726554278
 10
316.7936549811
 20
-55.6526095657
 10
314.8355400178
 20
-58.0532498479
 10
312.9598958408
 20
-60.5626164055
 10
311.176066815
 20
-63.1682077003
 10
309.4929398869
 20
-65.8570428077
 10
307.91890031
 20
-68.6157260864
 10
306.4617898705
 20
-71.4305139151
 10
305.1288678193
 20
-74.2873831624
 10
303.9267747069
 20
-77.1721010494
 10
302.8614993008
 20
-80.0702960566
 10
301.9383487495
 20
-82.9675295225
 10
301.1619221425
 20
-85.8493675755
 10
300.5360875983
 20
-88.7014530435
 10
300.0639629929
 20
-91.5095769801
 10
299.7479004275
 20
-94.2597494531
 10
299.5894745098
 20
-96.9382692416
 10
299.5894745098
 20
-99.5317920947
 10
299.7479004275
 20
-102.0273972121
 10
300.0639629929
 20
-104.4126516145
 10
300.5360875983
 20
-106.6756720846
 10
301.1619221425
 20
-108.8051843682
 10
301.9383487495
 20
-110.7905793421
 10
302.8614993008
 20
-112.6219658686
 10
303.9267747069
 20
-114.290220072
 10
305.1288678193
 20
-115.7870307939
 10
306.4617898705
 20
-117.1049409985
 10
307.91890031
 20
-118.2373849234
 10
309.4929398869
 20
-119.17872079
 10
311.176066815
 20
-119.9242589104
 10
312.9598958408
 20
-120.4702850511
 10
314.8355400178
 20
-120.8140789374
 10
316.7936549811
 20
-120.9539278054
 10
318.8244855003
 20
-120.8891349351
 10
320.91791408
 20
-120.6200231214
 10
323.0635113643
 20
-120.1479330656
 10
325.2505880954
 20
-119.4752166969
 10
327.4682483672
 20
-118.6052254541
 10
329.7054439076
 20
-117.5422935901
 10
331.9510291211
 20
-116.2917165778
 10
334.193816615
 20
-114.859724729
 10
336.4226329349
 20
-113.2534521551
 10
338.62637423
 20
-111.4809012252
 10
340.7940615719
 20
-109.550902699
 10
342.9148956515
 20
-107.4730717319
 10
344.97831058
 20
-105.2577599734
 10
346.974026528
 20
-102.9160039952
 10
348.892100939
 20
-100.4594703077
 10
350.7229780629
 20
-97.9003972384
 10
352.4575365618
 20
-95.2515339603
 10
354.0871349527
 20
-92.5260769773
 10
355.6036546582
 20
-89.7376043788
 10
356.9995404535
 20
-86.900008195
 10
358.2678381058
 20
-84.0274251876
 10
359.4022290199
 20
-81.1341664203
 10
360.3970617174
 20
-78.2346459631
 10
361.2473799919
 20
-75.3433090808
 10
361.9489476005
 20
-72.4745602684
 10
362.4982693685
 20
-69.6426914882
 10
362.8926086027
 20
-66.861810968
 10
363.1300007248
 20
-64.1457729146
 10
363.2092630591
 20
-61.5081084931
  0
LWPOLYLINE
  5
FD
330
1F
100
AcDbEntity
  8
0
  6
Continuous
 62
     7
370
    25
100
AcDbPolyline
 90
      102
 70
   128
 43
0.0
 10
372.7552046052
 20
-55.9973537383
 10
372.6751865862
 20
-53.0738504534
 10
372.4354421034
 20
-50.2540444729
 10
372.0368986816
 20
-47.5488450785
 10
371.481098208
 20
-44.968718161
 10
370.7701909665
 20
-42.5236457303
 10
369.9069273191
 20
-40.2230872965
 10
368.8946470653
 20
-38.0759432735
 10
367.7372665207
 20
-36.0905205442
 10
366.4392633657
 20
-34.2745003234
 10
365.0056593224
 20
-32.6349084408
 10
363.4420007264
 20
-31.1780881586
 10
361.754337069
 20
-29.9096756316
 10
359.9491975929
 20
-28.8345781014
 10
358.0335660323
 20
-27.9569549116
 10
356.0148535933
 20
-27.2802014157
 10
353.9008702824
 20
-26.8069358415
 10
351.6997946902
 20
-26.5389891616
 10
349.4201423506
 20
-26.4773980098
 10
347.0707327957
 20
-26.62240067
 10
344.6606554346
 20
-26.9734361554
 10
342.1992343884
 20
-27.5291463776
 10
339.6959924169
 20
-28.287381402
 10
337.1606140772
 20
-29.2452077643
 10
334.6029082553
 20
-30.3989198206
 10
332.0327702184
 20
-31.744054083
 10
329.460143331
 20
-33.2754064884
 10
326.894980587
 20
-34.9870525317
 10
324.3472061025
 20
-36.8723701871
 10
321.8266767222
 20
-38.9240655266
 10
319.3431438846
 20
-41.1342009396
 10
316.9062158957
 20
-43.4942258417
 10
314.5253207566
 20
-45.9950097548
 10
312.2096696879
 20
-48.6268776319
 10
309.9682214938
 20
-51.3796472874
 10
307.809647902
 20
-54.2426687903
 10
305.7423000143
 20
-57.2048656666
 10
303.774175998
 20
-60.254777752
 10
301.9128901428
 20
-63.3806055293
 10
300.1656434018
 20
-66.5702557778
 10
298.5391955334
 20
-69.8113883606
 10
297.0398389485
 20
-73.0914639653
 10
295.6733743662
 20
-76.3977926165
 10
294.4450883727
 20
-79.717582771
 10
293.3597329679
 20
-83.0379908057
 10
292.4215071809
 20
-86.3461707069
 10
291.634040825
 20
-89.6293237693
 10
291.0003804547
 20
-92.8747481114
 10
290.5229775788
 20
-96.0698878169
 10
290.2036791762
 20
-99.2023815111
 10
290.0437205505
 20
-102.2601101843
 10
290.0437205505
 20
-105.2312440785
 10
290.2036791762
 20
-108.1042884536
 10
290.5229775788
 20
-110.8681280592
 10
291.0003804547
 20
-113.5120701368
 10
291.634040825
 20
-116.025885788
 10
292.4215071809
 20
-118.3998495485
 10
293.3597329679
 20
-120.6247770138
 10
294.4450883727
 20
-122.6920603715
 10
295.6733743662
 20
-124.5937017041
 10
297.0398389485
 20
-126.3223439307
 10
298.5391955335
 20
-127.8712992702
 10
300.1656434018
 20
-129.2345751155
 10
301.9128901428
 20
-130.406897217
 10
303.774175998
 20
-131.3837300884
 10
305.7423000143
 20
-132.161294553
 10
307.809647902
 20
-132.7365823649
 10
309.9682214938
 20
-133.1073678474
 10
312.2096696879
 20
-133.2722165035
 10
314.5253207566
 20
-133.2304905657
 10
316.9062158957
 20
-132.9823514636
 10
319.3431438846
 20
-132.5287591992
 10
321.8266767222
 20
-131.8714686328
 10
324.3472061025
 20
-131.013022694
 10
326.894980587
 20
-129.9567425432
 10
329.460143331
 20
-128.7067147233
 10
332.0327702184
 20
-127.267775349
 10
334.6029082553
 20
-125.6454913971
 10
337.1606140772
 20
-123.8461391693
 10
339.6959924169
 20
-121.8766800096
 10
342.1992343884
 20
-119.7447333729
 10
344.6606554346
 20
-117.4585473467
 10
347.0707327957
 20
-115.0269667406
 10
349.4201423506
 20
-112.4593988674
 10
351.6997946902
 20
-109.7657771486
 10
353.9008702824
 20
-106.9565226833
 10
356.0148535933
 20
-104.0425039312
 10
358.0335660323
 20
-101.0349946648
 10
359.9491975929
 20
-97.9456303533
 10
361.754337069
 20
-94.7863631469
 10
363.4420007264
 20
-91.5694156367
 10
365.0056593224
 20
-88.3072335678
 10
366.4392633657
 20
-85.0124376887
 10
367.7372665207
 20
-81.6977749248
 10
368.8946470653
 20
-78.3760690622
 10
369.9069273191
 20
-75.0601711357
 10
370.7701909665
 20
-71.7629097102
 10
371.481098208
 20
-68.4970412496
 10
372.0368986816
 20
-65.2752007645
 10
372.4354421034
 20
-62.1098529298
 10
372.6751865862
 20
-59.0132438614
 10
372.7552046052
 20
-55.9973537383
  0
LWPOLYLINE
  5
FE
330
1F
100
AcDbEntity
  8
0
  6
Continuous
 62
     7
370
    25
100
AcDbPolyline
 90
       14
 70
   128
 43
0.0
 10
521.2476286543
 20
-141.7202054797
 10
521.1676106353
 20
-138.7967021947
 10
520.9278661526
 20
-135.9768962143
 10
520.5293227308
 20
-133.2716968199
 10
519.9735222571
 20
-130.6915699024
 10
519.2626150156
 20
-128.2464974717
 10
518.3993513683
 20
-125.9459390379
 10
517.3870711145
 20
-123.7987950149
 10
516.2296905699
 20
-121.8133722855
 10
514.9316874149
 20
-119.9973520648
 10
513.4980833716
 20
-118.3577601821
 10
511.9344247756
 20
-116.9009399
 10
510.2467611181
 20
-115.632527373
 10
509.1295048845
 20
-114.9362843012
  0
LWPOLYLINE
  5
FF
330
1F
100
AcDbEntity
  8
0
  6
Continuous
 62
     7
370
    25
100
AcDbPolyline
 90
       39
 70
   128
 43
0.0
 10
450.6342590253
 20
-216.2640011998
 10
452.2666000472
 20
-217.1065818298
 10
454.2347240634
 20
-217.8841462944
 10
456.3020719512
 20
-218.4594341063
 10
458.460645543
 20
-218.8302195888
 10
460.7020937371
 20
-218.9950682449
 10
463.0177448057
 20
-218.9533423071
 10
465.3986399449
 20
-218.705203205
 10
467.8355679338
 20
-218.2516109406
 10
470.3191007714
 20
-217.5943203742
 10
472.8396301517
 20
-216.7358744354
 10
475.3874046361
 20
-215.6795942846
 10
477.9525673802
 20
-214.4295664647
 10
480.5251942675
 20
-212.9906270904
 10
483.0953323045
 20
-211.3683431385
 10
485.6530381264
 20
-209.5689909107
 10
488.1884164661
 20
-207.599531751
 10
490.6916584376
 20
-205.4675851143
 10
493.1530794838
 20
-203.1813990881
 10
495.5631568449
 20
-200.749818482
 10
497.9125663998
 20
-198.1822506088
 10
500.1922187394
 20
-195.48862889
 10
502.3932943316
 20
-192.6793744247
 10
504.5072776425
 20
-189.7653556726
 10
506.5259900814
 20
-186.7578464062
 10
508.4416216421
 20
-183.6684820946
 10
510.2467611181
 20
-180.5092148883
 10
511.9344247756
 20
-177.2922673781
 10
513.4980833716
 20
-174.0300853091
 10
514.9316874149
 20
-170.7352894301
 10
516.2296905699
 20
-167.4206266662
 10
517.3870711145
 20
-164.0989208036
 10
518.3993513683
 20
-160.7830228771
 10
519.2626150156
 20
-157.4857614516
 10
519.9735222571
 20
-154.219892991
 10
520.5293227308
 20
-150.9980525059
 10
520.9278661526
 20
-147.8327046712
 10
521.1676106353
 20
-144.7360956028
 10
521.2476286543
 20
-141.7202054797
  0
ARC
  5
100
330
1F
100
AcDbEntity
  8
0
  6
Continuous
 62
     7
370
    25
100
AcDbCircle
 10
333.444755761
 20
-16.4607574635
 30
0.0
 40
3.409485875125828
100
AcDbArc
 50
113.2923936062
 51
175.3874654362
  0
LWPOLYLINE
  5
101
330
1F
100
AcDbEntity
  8
0
  6
Continuous
 62
     7
370
    25
100
AcDbPolyline
 90
       15
 70
   128
 43
0.0
 10
344.0463121552
 20
-16.1865768818
 10
344.0445497998
 20
-16.0959043502
 10
343.9040399442
 20
-15.3759922474
 10
343.5431170749
 20
-14.6821330018
 10
342.9733815498
 20
-14.0366278203
 10
342.2131451377
 20
-13.4602237707
 10
341.2868424621
 20
-12.9714469532
 10
340.2242456534
 20
-12.5860070572
 10
339.0595074473
 20
-12.3162924378
 10
337.830063488
 20
-12.1709719449
 10
336.575429116
 20
-12.1547162988
 10
335.3359293123
 20
-12.2680479692
 10
334.1514026205
 20
-12.5073243831
 10
333.0599207031
 20
-12.8648549995
 10
332.0965646869
 20
-13.3291484904
  0
ENDSEC
  0
SECTION
  2
OBJECTS
  0
DICTIONARY
  5
C
330
0
100
AcDbDictionary
281
     1
  3
ACAD_GROUP
350
D
  3
ACAD_LAYOUT
350
1A
  3
ACAD_MLINESTYLE
350
17
  3
ACAD_PLOTSETTINGS
350
19
  3
ACAD_PLOTSTYLENAME
350
E
  3
ACAD_SCALELIST
350
47
  3
DWGPROPS
350
102
  0
DICTIONARY
  5
D
102
{ACAD_REACTORS
330
C
102
}
330
C
100
AcDbDictionary
281
     1
  0
DICTIONARY
  5
1A
102
{ACAD_REACTORS
330
C
102
}
330
C
100
AcDbDictionary
281
     1
  3
Layout1
350
1E
  3
Layout2
350
26
  3
Model
350
22
  0
DICTIONARY
  5
17
102
{ACAD_REACTORS
330
C
102
}
330
C
100
AcDbDictionary
281
     1
  3
Standard
350
18
  0
DICTIONARY
  5
19
102
{ACAD_REACTORS
330
C
102
}
330
C
100
AcDbDictionary
281
     1
  0
ACDBDICTIONARYWDFLT
  5
E
102
{ACAD_REACTORS
330
C
102
}
330
C
100
AcDbDictionary
281
     1
  3
Normal
350
F
100
AcDbDictionaryWithDefault
340
F
  0
DICTIONARY
  5
47
102
{ACAD_REACTORS
330
C
102
}
330
C
100
AcDbDictionary
281
     1
  3
A0
350
48
  3
A1
350
49
  3
A2
350
4A
  3
A3
350
4B
  3
A4
350
4C
  3
A5
350
4D
  3
A6
350
4E
  3
A7
350
4F
  3
A8
350
50
  3
A9
350
51
  3
B0
350
52
  3
B1
350
53
  3
B2
350
54
  3
B3
350
55
  3
B4
350
56
  3
B5
350
57
  3
B6
350
58
  3
B7
350
59
  3
B8
350
5A
  3
B9
350
5B
  3
C0
350
5C
  3
C1
350
5D
  3
C2
350
5E
  3
C3
350
5F
  3
C4
350
60
  3
C5
350
61
  3
C6
350
62
  3
C7
350
63
  3
C8
350
64
  3
C9
350
65
  3
D0
350
66
  3
D1
350
67
  3
D2
350
68
  0
XRECORD
  5
102
102
{ACAD_REACTORS
330
C
102
}
330
C
100
AcDbXrecord
280
     1
  1
DWGPROPS COOKIE
  2

  3

  4

  6

  7

  8
b.kav
  9

300
=
301
=
302
=
303
=
304
=
305
=
306
=
307
=
308
=
309
=
 40
0.0
 41
2459741.482902373
 42
2459741.482902558
  1

 90
        0
  0
LAYOUT
  5
1E
102
{ACAD_REACTORS
330
1A
102
}
330
1A
100
AcDbPlotSettings
  1

  2
none_device
  4

  6

 40
0.0
 41
0.0
 42
0.0
 43
0.0
 44
0.0
 45
0.0
 46
0.0
 47
0.0
 48
0.0
 49
0.0
140
0.0
141
0.0
142
1.0
143
1.0
 70
   688
 72
     1
 73
     0
 74
     5
  7

 75
    16
147
1.0
148
0.0
149
0.0
100
AcDbLayout
  1
Layout1
 70
     1
 71
     1
 10
0.0
 20
0.0
 11
420.0
 21
297.0
 12
0.0
 22
0.0
 32
0.0
 14
1.0000000000E+20
 24
1.0000000000E+20
 34
1.0000000000E+20
 15
-1.0000000000E+20
 25
-1.0000000000E+20
 35
-1.0000000000E+20
146
0.0
 13
0.0
 23
0.0
 33
0.0
 16
1.0
 26
0.0
 36
0.0
 17
0.0
 27
1.0
 37
0.0
 76
     0
330
1B
  0
LAYOUT
  5
26
102
{ACAD_REACTORS
330
1A
102
}
330
1A
100
AcDbPlotSettings
  1

  2
none_device
  4

  6

 40
0.0
 41
0.0
 42
0.0
 43
0.0
 44
0.0
 45
0.0
 46
0.0
 47
0.0
 48
0.0
 49
0.0
140
0.0
141
0.0
142
1.0
143
1.0
 70
   688
 72
     1
 73
     0
 74
     5
  7

 75
    16
147
1.0
148
0.0
149
0.0
100
AcDbLayout
  1
Layout2
 70
     1
 71
     2
 10
0.0
 20
0.0
 11
0.0
 21
0.0
 12
0.0
 22
0.0
 32
0.0
 14
0.0
 24
0.0
 34
0.0
 15
0.0
 25
0.0
 35
0.0
146
0.0
 13
0.0
 23
0.0
 33
0.0
 16
1.0
 26
0.0
 36
0.0
 17
0.0
 27
1.0
 37
0.0
 76
     0
330
23
  0
LAYOUT
  5
22
102
{ACAD_REACTORS
330
1A
102
}
330
1A
100
AcDbPlotSettings
  1

  2
none_device
  4
Letter_(8.50_x_11.00_Inches)
  6

 40
6.35
 41
6.35
 42
6.35000508
 43
6.35000508
 44
215.9
 45
279.4
 46
0.0
 47
0.0
 48
0.0
 49
0.0
140
0.0
141
0.0
142
1.0
143
1.0
 70
  1712
 72
     1
 73
     0
 74
     0
  7

 75
     0
147
1.0
148
0.0
149
0.0
100
AcDbLayout
  1
Model
 70
     1
 71
     0
 10
0.0
 20
0.0
 11
279.4
 21
215.9
 12
0.0
 22
0.0
 32
0.0
 14
0.0
 24
0.0
 34
0.0
 15
279.4
 25
215.9
 35
0.0
146
0.0
 13
0.0
 23
0.0
 33
0.0
 16
1.0
 26
0.0
 36
0.0
 17
0.0
 27
1.0
 37
0.0
 76
     0
330
1F
331
29
  0
MLINESTYLE
  5
18
102
{ACAD_REACTORS
330
17
102
}
330
17
100
AcDbMlineStyle
  2
Standard
 70
     0
  3

 62
   256
 51
90.0
 52
90.0
 71
     2
 49
0.5
 62
   256
  6
BYLAYER
 49
-0.5
 62
   256
  6
BYLAYER
  0
ACDBPLACEHOLDER
  5
F
102
{ACAD_REACTORS
330
E
102
}
330
E
  0
SCALE
  5
48
102
{ACAD_REACTORS
330
47
102
}
330
47
100
AcDbScale
 70
     0
300
1:1
140
1.0
141
1.0
290
     1
  0
SCALE
  5
49
102
{ACAD_REACTORS
330
47
102
}
330
47
100
AcDbScale
 70
     0
300
1:2
140
1.0
141
2.0
290
     0
  0
SCALE
  5
4A
102
{ACAD_REACTORS
330
47
102
}
330
47
100
AcDbScale
 70
     0
300
1:4
140
1.0
141
4.0
290
     0
  0
SCALE
  5
4B
102
{ACAD_REACTORS
330
47
102
}
330
47
100
AcDbScale
 70
     0
300
1:5
140
1.0
141
5.0
290
     0
  0
SCALE
  5
4C
102
{ACAD_REACTORS
330
47
102
}
330
47
100
AcDbScale
 70
     0
300
1:8
140
1.0
141
8.0
290
     0
  0
SCALE
  5
4D
102
{ACAD_REACTORS
330
47
102
}
330
47
100
AcDbScale
 70
     0
300
1:10
140
1.0
141
10.0
290
     0
  0
SCALE
  5
4E
102
{ACAD_REACTORS
330
47
102
}
330
47
100
AcDbScale
 70
     0
300
1:16
140
1.0
141
16.0
290
     0
  0
SCALE
  5
4F
102
{ACAD_REACTORS
330
47
102
}
330
47
100
AcDbScale
 70
     0
300
1:20
140
1.0
141
20.0
290
     0
  0
SCALE
  5
50
102
{ACAD_REACTORS
330
47
102
}
330
47
100
AcDbScale
 70
     0
300
1:30
140
1.0
141
30.0
290
     0
  0
SCALE
  5
51
102
{ACAD_REACTORS
330
47
102
}
330
47
100
AcDbScale
 70
     0
300
1:40
140
1.0
141
40.0
290
     0
  0
SCALE
  5
52
102
{ACAD_REACTORS
330
47
102
}
330
47
100
AcDbScale
 70
     0
300
1:50
140
1.0
141
50.0
290
     0
  0
SCALE
  5
53
102
{ACAD_REACTORS
330
47
102
}
330
47
100
AcDbScale
 70
     0
300
1:100
140
1.0
141
100.0
290
     0
  0
SCALE
  5
54
102
{ACAD_REACTORS
330
47
102
}
330
47
100
AcDbScale
 70
     0
300
2:1
140
2.0
141
1.0
290
     0
  0
SCALE
  5
55
102
{ACAD_REACTORS
330
47
102
}
330
47
100
AcDbScale
 70
     0
300
4:1
140
4.0
141
1.0
290
     0
  0
SCALE
  5
56
102
{ACAD_REACTORS
330
47
102
}
330
47
100
AcDbScale
 70
     0
300
8:1
140
8.0
141
1.0
290
     0
  0
SCALE
  5
57
102
{ACAD_REACTORS
330
47
102
}
330
47
100
AcDbScale
 70
     0
300
10:1
140
10.0
141
1.0
290
     0
  0
SCALE
  5
58
102
{ACAD_REACTORS
330
47
102
}
330
47
100
AcDbScale
 70
     0
300
100:1
140
100.0
141
1.0
290
     0
  0
SCALE
  5
59
102
{ACAD_REACTORS
330
47
102
}
330
47
100
AcDbScale
 70
     0
300
1/128" = 1'-0"
140
0.0078125
141
12.0
290
     0
  0
SCALE
  5
5A
102
{ACAD_REACTORS
330
47
102
}
330
47
100
AcDbScale
 70
     0
300
1/64" = 1'-0"
140
0.015625
141
12.0
290
     0
  0
SCALE
  5
5B
102
{ACAD_REACTORS
330
47
102
}
330
47
100
AcDbScale
 70
     0
300
1/32" = 1'-0"
140
0.03125
141
12.0
290
     0
  0
SCALE
  5
5C
102
{ACAD_REACTORS
330
47
102
}
330
47
100
AcDbScale
 70
     0
300
1/16" = 1'-0"
140
0.0625
141
12.0
290
     0
  0
SCALE
  5
5D
102
{ACAD_REACTORS
330
47
102
}
330
47
100
AcDbScale
 70
     0
300
3/32" = 1'-0"
140
0.09375
141
12.0
290
     0
  0
SCALE
  5
5E
102
{ACAD_REACTORS
330
47
102
}
330
47
100
AcDbScale
 70
     0
300
1/8" = 1'-0"
140
0.125
141
12.0
290
     0
  0
SCALE
  5
5F
102
{ACAD_REACTORS
330
47
102
}
330
47
100
AcDbScale
 70
     0
300
3/16" = 1'-0"
140
0.1875
141
12.0
290
     0
  0
SCALE
  5
60
102
{ACAD_REACTORS
330
47
102
}
330
47
100
AcDbScale
 70
     0
300
1/4" = 1'-0"
140
0.25
141
12.0
290
     0
  0
SCALE
  5
61
102
{ACAD_REACTORS
330
47
102
}
330
47
100
AcDbScale
 70
     0
300
3/8" = 1'-0"
140
0.375
141
12.0
290
     0
  0
SCALE
  5
62
102
{ACAD_REACTORS
330
47
102
}
330
47
100
AcDbScale
 70
     0
300
1/2" = 1'-0"
140
0.5
141
12.0
290
     0
  0
SCALE
  5
63
102
{ACAD_REACTORS
330
47
102
}
330
47
100
AcDbScale
 70
     0
300
3/4" = 1'-0"
140
0.75
141
12.0
290
     0
  0
SCALE
  5
64
102
{ACAD_REACTORS
330
47
102
}
330
47
100
AcDbScale
 70
     0
300
1" = 1'-0"
140
1.0
141
12.0
290
     0
  0
SCALE
  5
65
102
{ACAD_REACTORS
330
47
102
}
330
47
100
AcDbScale
 70
     0
300
1-1/2" = 1'-0"
140
1.5
141
12.0
290
     0
  0
SCALE
  5
66
102
{ACAD_REACTORS
330
47
102
}
330
47
100
AcDbScale
 70
     0
300
3" = 1'-0"
140
3.0
141
12.0
290
     0
  0
SCALE
  5
67
102
{ACAD_REACTORS
330
47
102
}
330
47
100
AcDbScale
 70
     0
300
6" = 1'-0"
140
6.0
141
12.0
290
     0
  0
SCALE
  5
68
102
{ACAD_REACTORS
330
47
102
}
330
47
100
AcDbScale
 70
     0
300
1'-0" = 1'-0"
140
12.0
141
12.0
290
     0
  0
ENDSEC
  0
EOF
